PrimaNota.ru - самый крупный в мире бесплатный архив песенных текстов, аккордов, табулатур и нот


Pasi - Pijuni - бас-таба, видео

Регистрация Запомнить меня
Войти через:  Facebook Google Twitter Vk Yandex Mail.ru

Pasi - Pijuni - бас-таба, видео

Печатать
Просмотров: 94
Here's the song Pijuni of legendary Croatian punk band Pasi. Their official 
website: http://bend98.com/wp/

Intro:
G|-------------------|
D|-------------------|
A|------3h5----------| x2
E|-------------------|

Main riff:
G|-------------------------------------------------|
D|---------7--------------------7------------------|
A|--5-55-5--5--333-33-03/5-55-5--5--333-33-03/-----|
E|-------------------------------------------------|

This riff is almost the same during the verses. Rhythm changes a bit but it's really 
easy to figure out.
Also, the first 5 is not played in the beginning of the song.

Chorus:
G|-----------------------------------------------------------|
D|-------5----------7-5-----------5-----------7-5------------|
A|--3-33---87--5-55----8----3-333---87--5-555----8-----------|
E|-----------------------------------------------------------|

"I sto nam vise dusa place...":
G|----------------------------------------|
D|----------------------------------------|
A|--55555555-33333333-55555555-33333333---|
E|----------------------------------------|

| h: hammer-on
| /: slide up
Добавлено: 08.10.2013
Другие материалы по этой песне:
  • Аккорды и текст

Страница создана 08.10.2013
http://primanota.ru/pasi/pijuni-chords.htm
Привет, Гость.
Предлагаем пройти революционный курс по гитаре.
Подарок от PrimaNota.Ru, забирай!