PrimaNota.ru - самый крупный в мире бесплатный архив песенных текстов, аккордов, табулатур и нот


Pascow - Trampen Nach Norden - таба, видео

Регистрация Запомнить меня
Войти через:  Facebook Google Twitter Vk Yandex Mail.ru

Pascow - Trampen Nach Norden - таба, видео

Печатать
Просмотров: 60
-------------------------------------------------------------------------------
                             Trampen nach Norden - Pascow
-------------------------------------------------------------------------------
Tabbed by: Stef
E-mail: stef111elf@web.de

Tuning: Standard

Intro:

e|------------------|-----------------|-------------|------------------------|
B|------------------|-----------------|-------------|------------------------|
G|--------8/---11---|--------3/---6---|--------8/-9-|-9--11\-9\-8/-9---------|
D|-9-9-9--8/---11---|-4-4-4--3/---6---|-6-6-6--8/-9-|-9--11\-9\-8/-9---------|
A|-9-9-9--6/---9----|-4-4-4--1/---4---|-6-6-6--6/-7-|-7--9-\-7\-6/-7---------|
E|-7-7-7------------|-2-2-2-----------|-4-4-4-------|------------------------|

e|------------------|-----------------|-----------------|--------------------|
B|------------------|-----------------|-----------------|--------------------|
G|--------8/---11---|--------3/---6---|-----------------|-11\--9--11-11------|
D|-9-9-9--8/---11---|-4-4-4--3/---6---|-6-6-6-6-6-6-6-6-|-11\--9--11-11------|
A|-9-9-9--6/---9----|-4-4-4--1/---4---|-6-6-6-6-6-6-6-6-|-9-\--7--9--9-------|
E|-7-7-7------------|-2-2-2-----------|-4-4-4-4-4-4-4-4-|--------------------|


For Verse and Chorus use these chords:

e|-----|-----|-----|-----|---------------------------------------------------|
B|-----|-----|-----|-----|---------------------------------------------------|
G|-----|-----|-----|--9--|---------------------------------------------------|
D|--9--|--4--|--6--|--9--|---------------------------------------------------|
A|--9--|--4--|--6--|--7--|---------------------------------------------------|
E|--7--|--2--|--4--|-----|---------------------------------------------------|
    
    B5   F#5   G#5    E5

Verse 1:

B5      F#5         G#5
Mit dem Auto meiner Ex
          E5
fahr' ich aus der Hoelle.
B5      F#5        G#5
Und ich fahre über Land,
     E5           B5
4, 5 Stunden oder so.
      F#5               G#5
Irgendwann verlier' ich dann
       E5         B5
meinen guten Geschmack,
         F#5      G#5
doch ich kauf ihn wieder ein
    E5
bei Aral um halb acht.


Intro


Verse 2 - same as Verse 1


Intro with last Part played:

e|----------------|
B|----------------|
G|-11-11-11-11-11-|
D|-11-11-11-11-11-|
A|-9--9--9--9--9--|
E|----------------|


Chorus:

B5         F#5
   Trampen    nach Norden,
G#5          E5
   dann an's Meer und dann weg


************************************

| /   slide up
| \   slide down
| h   hammer-on
| p   pull-off
| ~   vibrato
| +   harmonic
| x   Mute note
| b   Bend
| pb  Pre-bend
| br  Bend release
| pbr Pre-bend release
| brb Bend release bend

************************************
Добавлено: 06.08.2013
Другие материалы по этой песне:
  • Аккорды и текст

Страница создана 06.08.2013
http://primanota.ru/pascow/trampen-nach-norden-chords.htm
Привет, Гость.
Предлагаем пройти революционный курс по гитаре.
Подарок от PrimaNota.Ru, забирай!