PrimaNota.ru - самый крупный в мире бесплатный архив песенных текстов, аккордов, табулатур и нот


Pascow - Poison Au Coeur Mademoiselle - аккорды и текст, видео

Регистрация Запомнить меня
Войти через:  Facebook Google Twitter Vk Yandex Mail.ru

Pascow - Poison Au Coeur Mademoiselle - аккорды и текст, видео

Печатать
Просмотров: 131
Poison Au Coeur Mademoiselle
Pascow
Check out Pascows website for upcoming tour dates:
http://www.tanteguerilla.com/pascow/2011/index.htm

All chords are power-chords. Play intro once lead only, two times including second
guitar(also after the chorus)


intro:
lead-guitar
e--0-00-000-0-00-000-00-00-0-0-------|
b--5-55-555-4-44-444-55-44-2-0-------|
g------------------------------------|
d------------------------------------|
a------------------------------------|
E------------------------------------|

second guitar
e-------------------------------------------------------------------|
b-------------------------------------------------------------------|
g-9--9--9--8--------------------------------------------------------|
d-9--9--9--8---9--9--9--9--9--9--11-11-11-11-11-11-7--7--7--7--7--7-|
a-7--7--7--6---9--9--9--9--9--9--11-11-11-11-11-11-7--7--7--7--7--7-|
E--------------7--7--7--7--7--7--9--9--9--9--9--9--5--5--5--5--5--5-|

e-------------------------------------------------------------------|
b-------------------------------------------------------------------|
g-9--9--9--11-------------------------------------------------------|
d-9--9--9--11--9--9--9--9--9--9--11-11-11-11-11-11-7--7--7--7--7--7-|
a-7--7--7--9---9--9--9--9--9--9--11-11-11-11-11-11-7--7--7--7--7--7-|
E--------------7--7--7--7--7--7--9--9--9--9--9--9--5--5--5--5--5--5-|



E          B
  um 0 uhr 4
                C#             A
steh ich wieder mal vor deiner Tuer.
E           B
  in meiner hand:
    C#                                A
ein Buch, ein Brief, die Flasche ohne Pfand


         Ab                  A
und mein Kopf sagt mir alles ok
         Ab
doch dem Rest meines Koerpers,
    A              B
dem tut es noch so weh


     E            Eb  B
also lauf ich nochmal heim,
     C#               A
vielleicht ist es das letzte Mal,
     E         F#  B
dass er so bei dir sitzt
       C#                 A
und du gluecklich mit ihm bist.
         E         Eb B
tomorrow i will go my way,
             C#                 A
und wenn das Raeumfahrzeug dann streikt
        E            Eb B
bin ich sicher, dass du lachst
             C#
auch wenn du spuerst,
            A                E        Eb B C# A    E F# B C# A (like intro)
dass du das nicht so schnell vergisst.


E            B
  ach ja ich weiss,
    C#                             A
wir bleiben Freunde, klar um jeden Preis
E               B
  du rufst mich an,
  C#                            A
sobald er das mit uns verstehen kann.


        Ab                        A
und ich weiss wir werden uns noch sehen
           Ab                            A                    B
wenn meine Sonne wieder scheint und dein Wind sich ploetzlich dreht


     E            Eb  B
also lauf ich nochmal heim,
     C#               A
vielleicht ist es das letzte Mal,
     E         F#  B
dass er so bei dir sitzt
       C#                 A
und du gluecklich mit ihm bist.
         E         Eb B
tomorrow i will go my way,
             C#                 A
und wenn das Raeumfahrzeug dann streikt
        E            Eb B
bin ich sicher, dass du lachst
             C#
auch wenn du spuerst,
            A                E        Eb B C# A    E F# B C# A (like intro)
dass du das nicht so schnell vergisst.



solo intro again
end on E
Добавлено: 26.07.2012
Другие материалы по этой песне:
  • Аккорды и текст

Страница создана 26.07.2012
http://primanota.ru/pascow/poison-au-coeur-mademoiselle-chords.htm
Привет, Гость.
Предлагаем пройти революционный курс по гитаре.
Подарок от PrimaNota.Ru, забирай!