PrimaNota.ru - самый крупный в мире бесплатный архив песенных текстов, аккордов, табулатур и нот


Pascow - Mond Ber Moskau - таба, видео

Регистрация Запомнить меня
Войти через:  Facebook Google Twitter Vk Yandex Mail.ru

Pascow - Mond Ber Moskau - таба, видео

Печатать
Просмотров: 71
Pascow - Mond Über Moskau

Intro:
e------------|
H------------|
G------------| (eigentlich Bass)  4x
D------------|
A-3h5~555555-|
E------------|

Bb/C~  C/D~

C/D                C/D             Bb/C                       C/D

Lead:
e-54545454545454---54545454545454---10---10---101210--101210---54545454545454---|
H---------------63---------------63---13~--13~------13------13---------------63-|
G-------------------------------------------------------------------------------|        2x
D-------------------------------------------------------------------------------|
A-------------------------------------------------------------------------------|
E-------------------------------------------------------------------------------|

Verse1:
D
Noch das eine Treffen in London,
danach ist es genug.
Agenten, Hotel und alte Akten,
ganz wie bei Flemming ohne Bond.
Gift, Gift, aber keine Mörder.
Im heißen Tee schmeckt man es nicht...
Earl Grey Pollonium,
im heißen Tee schmeckt er es nicht...


Chorus:
        F                    A
Denn sie bleiben gern unter sich und reden,
D               Bb
während tausend Hände beten.
F     A   D
Taube Piloten.
(Er) geht auf. Mond über Moskau.
        F                    A
Denn sie bleiben gern unter sich und reden,
D               Bb
hunderttausend Hände beten.
F     A   D
Taube Piloten.

Verse2:
Blonder Zar, kannst alles machen,
deine Hand reicht furchtbar weit.
Nur das Feilschen um den Vorwand
ist nicht immer so genau.
Du umarmst so oft die andern,
hältst sie alle im Griff,
die meisten wollen das auch gerne,
nur manche eben nicht.

Chorus:
Denn sie bleiben gern unter sich und reden,
während tausend Hände beten.
Taube Piloten.
(Er) geht auf. Mond über Moskau.
Denn sie bleiben gern unter sich und reden,
hunderttausend Hände beten.
Taube Piloten.

Solo:
Lead steigt ein mit (Rhy. spielt weiter):

e------------------------3----------------0-----------------5------|
H---1-3-1-3-1-3-1--3-5-6---6-5-3-1-1h3~333-1~-11133---3~~6~~--6-3--|
G-2~-2-2-2-2-2-2-2---------------------------2-----22--------------|
D------------------------------------------------------------------| (3x)
A------------------------------------------------------------------|
E------------------------------------------------------------------|

Outro:
Denn sie bleiben gern unter sich und reden,
hunderttausend Hände beten.
Taube Piloten.
(Er) geht auf. Mond über Moskau.
Sie bleiben gern unter sich und reden,
hunderttausend Hände beten.
Taube Piloten.
Добавлено: 01.06.2013
Другие материалы по этой песне:
  • Аккорды и текст

Страница создана 01.06.2013
http://primanota.ru/pascow/mond-ber-moskau-chords.htm
Привет, Гость.
Предлагаем пройти революционный курс по гитаре.
Подарок от PrimaNota.Ru, забирай!