PrimaNota.ru - самый крупный в мире бесплатный архив песенных текстов, аккордов, табулатур и нот


Pascal Obispo - Assassine - аккорды и текст, видео

Регистрация Запомнить меня
Войти через:  Facebook Google Twitter Vk Yandex Mail.ru

Pascal Obispo - Assassine - аккорды и текст, видео

Печатать
Просмотров: 50
Авторы музыки: Pascal Obispo
Авторы текста: Pascal Obispo
Assassine
Pascal Obispo
Pascal Obispo - Assassine

ATTENTION les Csus2* représentent des accords joués en avance sur leur mesure
(une croche il me semble ) :

|.---.---.---.---|.---.---.---.---|   NORMAL
Em/D    Em/C#    Csus2   B7

|.---.---.---.---|.---.---.---.---|   DECALE
Em/D    Em/C#  Csus2*    B7

Commentaires bienvenus
----------------------
maunakea@wanadoo.fr

used CHORDS :
Em    : 022000
Em/Eb : XX1000
Em/D : XX0000
Em/C# : X42000
Csus2 : X32000
B7 : X21200 (pas joué partout)
B7 : X21202 normal
Am : X02210
D/F# : 2X023X


E||---------0-----------0-----|--------0-----------0-----|
B||---------0-----------0-----|--------0-----------0-----|
G||*-----0-----0-----0-----0--|-----0-----0-----0-----0--|
D||*--2-----------1-----------|--0-----------------------|
A||---------------------------|--------------4-----------|
E||---0-----------------------|--------------------------|
Em          Em/Eb Em7/D        Em/C#


--------------------------|----------------------------||
--0-----0-----------0-----|--------1---------------0---||
--0-----0--------2-----2--|-----2---------------2-----*||
-----2-----2--------------|--2---------------1--------*||
--3-----------2-----------|--0--------0-1-2------------||
--------------------------|----------------------------||
Csus2    B7  Am     (bass line)B7


Em               Em/Eb        Em/D         Em/C#
Tant de jours, de mois passés      effacés et classés,
Csus2*     B7  Am   Bass line B7
les maux et moments, des plaisirs dépassés...


Em               Em/Eb      Em/D         Em/C#
Aux cîmes de mes désirs,      ton ventre se dessine,
Csus2*        B7  Am
Assez de simagrées, tu m'as choisi pour cible...
Bass line B7
Assassine

Pont
----
E||--------------------------|-------3--3--0--------|
B||--------------------------|-------3--3--1--------|
G||--------0-----------2-----|-------0--0--2--------|
D||-----2-----2-----0-----0--|-------------2--------|
A||--------------------------|-------------0--------|
E||--0-----------2-----------|--3-------------------|
Em          D/F# G          Am

Em       D/F#   G    Am
Si je te suis des yeux,
Em       D/F#   G    Am
Ne crois pas que c'est un jeu




REFRAIN:
------------------------------------------------------
Em      Am       C       B7
Mais si tu m'assassines ... aussi souvent
Em                       Am              C       B7
Mais, le couteau dans la plaie trop souvent

E||-------------||
B||-------------||
G||-------------||
D||-------------||
A||--3-2-0------||
E||--------3-2--||
Je préférerais que tu...
Em       Am          C          B7
M'assassines pour de bon maintenant
Em            Am              C...
Je ne supporterai pas longtemps
B7...  |Em   Em/Eb | Em7/D   Em/C# | Csus2  B7  D|
Que tu m'assassines autant
------------------------------------------------------




Em               Em/Eb     Em/D         Em/C#        Csus2*
J'en ai le souffle coupé,    je suis touché de plein fouet
B7 Am  Bass line B7
Tu persistes et signes, c'est lourd les regrets, @"Assassine@"
Em                Em/Eb            Em/D         Em/C#
Mais c'est sublime mais il m'assomme,  ce bébé, mais c'est un...
Csus2*
Beau prétexte en somme...
B7      Am                 Bass line B7
Comme    si l'amour ne durait tout le temps, maintenant...
Em       D/F#   G    Am
Je te fuirai des yeux
Em       D/F#   G    Am
Même si mon coeur brûle encore le feu...




REFRAIN 2
------------------------------------------------------
Em      Am       C       B7
Mais si tu m'assassines ... aussi souvent
Em                       Am              C       B7
Mais, le couteau dans la plaie trop souvent

Bass line (C B A G F#)
Je préférerais que tu...
Em       Am          C          B7
M'assassines pour de bon maintenant
Em            Am              C...
Je ne supporterai pas longtemps
B7...  |Em   Em/Eb | Em7/D   Em/C# | Csus2  B7|Am...
Que tu m'assassines........... autant
------------------------------------------------------


Heavy PART
Em
C B7
Em  Am
C B7

Refrain Repeat
+ délires divers... ad lib comme on dit...
Добавлено: 07.06.2016
Другие материалы по этой песне:
  • Аккорды и текст

Страница создана 05.07.2012
http://primanota.ru/pascal-obispo/assassine-chords.htm
Привет, Гость.
Предлагаем пройти революционный курс по гитаре.
Подарок от PrimaNota.Ru, забирай!