PrimaNota.ru - самый крупный в мире бесплатный архив песенных текстов, аккордов, табулатур и нот


Partners In Kryme - Turtle Power - таба, видео

Регистрация Запомнить меня
Войти через:  Facebook Google Twitter Vk Yandex Mail.ru

Partners In Kryme - Turtle Power - таба, видео

Печатать
Просмотров: 25
Уроки эстрадного вокала в Санкт-Петербурге
-------------------------------------------------------------------------------
                            T.U.R.T.L.E Power - partners in kryme
-------------------------------------------------------------------------------
Tabbed by: nurseboy
E-mail:

Tuning: Standard
[intro ]
e|---------------------------------------------------------------------------|
B|---------------------------------------------------------------------------|
G|-12h16~------12h16~-----12h15~-----12h15~-----12h14~-----12h14~------------|  X2
D|--------------------------------------------------------------------12ho14-|
A|---------------------------------------------------------------------------|
E|---------------------------------------------------------------------------|
 [verse part 1]
e|--7-------------------------------------------------------------------------|
B|--7-------------------------------------------------------------------------|
G|--9-------------------------------------------------------------------------| X2
D|--9-------------------------------------------------------------------------|
A|--7-------------------------------------------------------------------------|
E|----------------------------------------------------------------------------|
  (" on the half shell...")
  (" 'cos they cant find the source....")

[verse riff 2]
e|---------------------------------------------------------------------------|
B|-------12~--14~-14/16~----16~--16/19~--17-16~------------------------------|
G|-12/14~--------------------------------------------------------------------| X2
D|---------------------------------------------------------------------------|
A|---------------------------------------------------------------------------|
E|---------------------------------------------------------------------------|
   ("call April o Neil...")
  (" we need heroes , like the lone ranger...")

[Chorus]
e|-7------------8------------5--------------0----------------0--------------------|
B|-7------------8------------5--------------0----------------0--------------------|
G|-9------------7------------6--------------1----------------1--------------------| X2
D|-9------------8------------7--------------2----------------2--------------------|
A|-7------------8------------7--------------2----------------2--------------------|
E|--------------6------------5--------------0----------------0--------------------|
   T.U.R.T...   T.U.R.T...   T.U.R.T...      Teenage mutant ninja turtles....

 repeat verse 
e|--7-------------------------------------------------------------------------|
B|--7-------------------------------------------------------------------------|
G|--9-------------------------------------------------------------------------| X2
D|--9-------------------------------------------------------------------------|
A|--7-------------------------------------------------------------------------|
E|----------------------------------------------------------------------------|
   ("our ace reporter...")
   ("...and got caught"

[verse riff 2]
e|---------------------------------------------------------------------------|
B|-------12~--14~-14/16~----16~--16/19~--17-16~------------------------------|
G|-12/14~--------------------------------------------------------------------| X2
D|---------------------------------------------------------------------------|
A|---------------------------------------------------------------------------|
E|---------------------------------------------------------------------------|
   ("headed by shredder...")
  (" from outa the dark...")

[Chorus]
e|-7------------8------------5--------------0----------------0--------------------|
B|-7------------8------------5--------------0----------------0--------------------|
G|-9------------7------------6--------------1----------------1--------------------| X2
D|-9------------8------------7--------------2----------------2--------------------|
A|-7------------8------------7--------------2----------------2--------------------|
E|--------------6------------5--------------0----------------0--------------------|
   T.U.R.T...   T.U.R.T...   T.U.R.T...      Teenage mutant ninja turtles....




[Breakdown] 
e|---------------------------------------------------------------------------|
B|---------------------------------------------------------------------------|
G|-12h16~------12h16~-----12h15~-----12h15~-----12h14~-----12h14~------------|  X2
D|--------------------------------------------------------------------12ho14-|
A|---------------------------------------------------------------------------|
E|---------------------------------------------------------------------------|
   (" do you have what it takes...")

 [verse part 1]
e|--7-------------------------------------------------------------------------|
B|--7-------------------------------------------------------------------------|
G|--9-------------------------------------------------------------------------| X2
D|--9-------------------------------------------------------------------------|
A|--7-------------------------------------------------------------------------|
E|----------------------------------------------------------------------------|
    ("heroes on a half shell...")
    ("they where once normal, but now there mutants")


[verse riff 2]
e|---------------------------------------------------------------------------|
B|-------12~--14~-14/16~----16~--16/19~--17-16~------------------------------|
G|-12/14~--------------------------------------------------------------------| X2
D|---------------------------------------------------------------------------|
A|---------------------------------------------------------------------------|
E|---------------------------------------------------------------------------|
   ("Raphael, he's the leader of the group...")
  ("back to the story ...")

e|--7-------------------------------------------------------------------------|
B|--7-------------------------------------------------------------------------|
G|--9-------------------------------------------------------------------------| X2
D|--9-------------------------------------------------------------------------|
A|--7-------------------------------------------------------------------------|
E|----------------------------------------------------------------------------|
    ("that was the last straw...")
    ("..dust us off")
[verse riff 2]
e|---------------------------------------------------------------------------|
B|-------12~--14~-14/16~----16~--16/19~--17-16~------------------------------|
G|-12/14~--------------------------------------------------------------------| X2
D|---------------------------------------------------------------------------|
A|---------------------------------------------------------------------------|
E|---------------------------------------------------------------------------|
   ("the villain is chilling...")
  ("light shinning from your illumination ...")



Chorus X4 ( or supplement intro)

End
| /   slide up
| \   slide down
| h   hammer-on
| p   pull-off
| ~   vibrato
| +   harmonic
| x   Mute note
| b   Bend
| pb  Pre-bend
| br  Bend release
| pbr Pre-bend release
| brb Bend release bend

************************************
Добавлено: 12.06.2016
Другие материалы по этой песне:
  • Аккорды и текст

Страница создана 12.06.2016
http://primanota.ru/partners-in-kryme/turtle-power-chords.htm
Привет, Гость.
Предлагаем пройти революционный курс по гитаре.
Подарок от PrimaNota.Ru, забирай!