PrimaNota.ru - самый крупный в мире бесплатный архив песенных текстов, аккордов, табулатур и нот


Parry Gripp - Neon Pegasus - аккорды и текст, видео

Регистрация Запомнить меня
Войти через:  Facebook Google Twitter Vk Yandex Mail.ru

Parry Gripp - Neon Pegasus - аккорды и текст, видео

Печатать
Просмотров: 298
Neon Pegasus
Parry Gripp
Intro thing:
  G               D               Em              Bm
e|----------------|----------------|----------------|----------------|
B|----------------|----------------|----------------|----------------|
G|----------------|----------------|----------------|----------------|
D|----------------|0-0-0-0-0-0-0-0-|2-2-2-2-2-2-2-2-|----------------|
A|----------------|----------------|----------------|2-2-2-2-2-2-2-2-|
E|3-3-3-3-3-3-3-3-|----------------|----------------|----------------|

  C               G                D
e|----------------|----------------|----------------|----------------|
B|----------------|----------------|----------------|----------------|
G|----------------|----------------|0-0-0-0-0-0-0-0-|0-0-0-0-0-0-0-0-|
D|----------------|----------------|----------------|----------------|
A|3-3-3-3-3-3-3-3-|----------------|----------------|----------------|
E|----------------|3-3-3-3-3-3-3-3-|----------------|----------------|


              G         D
Spread your wings Neon Pegasus
         Em                Bm
And go flying through the night
          C
They can take your glitter
          G                     D
But they can't take away your sparkle

           G                D
And the thousand arm robot octopus
             Em              Bm
Will try to grab your golden reins
           C                         G
But your wings are strong from the battle
               D
Over Cupcake Mountain

        Am          C
Never again to be lonely
        G                    D
Never again to be without a home
          Am                      C
Never to bow to the gummy king's throne
        G           D
Never again, never again!

       Am              C
Never again to be put down
                G                       D
By the Marzipan Girl at the silver lake lounge
                Am                  C
Soaring over it all, high up in the clouds
       G             D
Never again, never again!

Bridgey thing:
G    D         Em                          Bm
(speaking) Yeah!      When I first saw you defeating the Gummy King's
       C                    G
Gluten powered armada in the darkness of space,
D
  I knew you were no ordinary pegasus!)

and then just before you repeat back to the beginning throw in a bar of
Dm

Lyrics from:
http://www.lyricsreg.com/lyrics/neon+pegasus/Parry+Gripp/
Добавлено: 02.07.2013
Другие материалы по этой песне:
  • Аккорды и текст

Страница создана 02.07.2013
http://primanota.ru/parry-gripp/neon-pegasus-chords.htm
Привет, Гость.
Предлагаем пройти революционный курс по гитаре.
Подарок от PrimaNota.Ru, забирай!