PrimaNota.ru - самый крупный в мире бесплатный архив песенных текстов, аккордов, табулатур и нот


Parquet Courts - Youve Got Me Wondering Now - таба, видео

Регистрация Запомнить меня
Войти через:  Facebook Google Twitter Vk Yandex Mail.ru

Parquet Courts - Youve Got Me Wondering Now - таба, видео

Печатать
Просмотров: 71
-------------------------------------------------------------------------------
                             You've Got Me Wondering Now - Parquet Courts
-------------------------------------------------------------------------------
Tabbed by: Nirvana12390: Alex Rodriguez
E-mail: Nirvana12390@sbcglobal.net

Tuning: Standard

     A
e|-------|
B|-5~----|
G|-6~----|
D|-7~----|
A|-7~----|
E--5~----|

Verses

     A
e|----------------------------------------|
B|--5555555555555555----------------------|
G|--6666666666666666----------------------|
D|--7777777777777777----------------------|
A|--7777777777777777----------------------|
E|--5555555555555555----------------------|

V1.
Cavity click keeps the rhythm, keeps it movin'
Any day it's gonna crack, popcorn kernel
Olive pit, at any moment smashed to bits

V2.
Dog-eyed kindess naive and trusting
Fans the purest flame of morning fire
But once it fizzles out into charred, formless evening
How do you ignite without turning to ash yeah

BRIDGE

V3.
Forced into morning, tempted into night
Tally all the things that you broke
Bending her branches. Snapping, sapping and writhing
For me alone


Chorus
guitar 1
     A                                 G        D         A
e|----------------------------------77777777-------------------|
B|-55555555555555555555555555555555-8888888877777777----5~-5~--|
G|-66666666666666666666666666666666-7777777777777777----6~-6~--|
D|-77777777777777777777777777777777---------77777777----7~-7~--|
A|-77777777777777777777777777777777---------55555555----7~-7~--|
E|-55555555555555555555555555555555---------------------5~-5~--|

guitar 2
e|-----------------------------------------15-x8-10-x8---------|
B|-----------------------------------------12----10------------|
G|-6-4-----------------6-4-----------------12----11------------|
D|-----7-7-5-7-----5-7-----7-7-5-7-----5-7-------12------------|
A|-------------7-7-----------------7-7-------------------------|
E|-------------------------------------------------------------|

chorus 1
Toothache's better than heartache baby
I've figured that much out
And I thought I knew a thing or two about the blues
But you've got me wondering now

chorus 2
Seasick's better than heartsick baby
I know that much by now, and I thought
I knew nausea from sea to cars
But you've got me wondering now x4

BRIDGE: verse and chorus with extra noise

chorus 3
Yeah, I guess sunburn's better than heartburn (barely)
I know that much by now
And I thought I knew a thing or two about the blues
But you've got me wondering now
But you've got me wondering now
But you've got me wondering now

outro guitar 1
with lots of noise from guitar 2
     A
e|-----------------------------------------|
B|-5555555555555555555555555---------------|
G|-6666666666666666666666666---------------|
D|-7777777777777777777777777---------------|
A|-7777777777777777777777777---------------|
E|-5555555555555555555555555---------------|
Добавлено: 08.06.2015
Другие материалы по этой песне:
  • Аккорды и текст

Страница создана 08.06.2015
http://primanota.ru/parquet-courts/youve-got-me-wondering-now-chords.htm
Привет, Гость.
Предлагаем пройти революционный курс по гитаре.
Подарок от PrimaNota.Ru, забирай!