PrimaNota.ru - самый крупный в мире бесплатный архив песенных текстов, аккордов, табулатур и нот


Parquet Courts - Vienna Ii - таба, видео

Регистрация Запомнить меня
Войти через:  Facebook Google Twitter Vk Yandex Mail.ru

Parquet Courts - Vienna Ii - таба, видео

Печатать
Просмотров: 42
Авторы: Parquet Courts

-------------------------------------------------------------------------------
           Vienna II - Parquet Courts (off Sunbathing Animal) 
-------------------------------------------------------------------------------

Intro:  A   F#  (x2) 

Verse A: Lead 
e|------------------------------------------------------------------------------------|
B|11-11-11-10-----8-10-11-11-11-10-----8-10-11-11-11-10-----8-10-11-11-11-10-----8-10-|
G|------------7-9------------------7-9------------------7-9------------------7-9------|
D|------------------------------------------------------------------------------------|
A|------------------------------------------------------------------------------------|
E|------------------------------------------------------------------------------------|

Verse A: Rhythm 
e|------------------------------------------------------------------------------------|
B|11-11-11-10-8-8-8-10-11-11-11-10-8-8-8-10-11-11-11-10-8-8-8-10-11-11-11-10-8-8-8-10-|
G|------------------------------------------------------------------------------------|
D|------------------------------------------------------------------------------------|
A|------------------------------------------------------------------------------------|
E|------------------------------------------------------------------------------------|

Verse B: Lead 
e|---------------------------------------------------------------------------------------|
B|10-7-10-7--10-10-10--11-12--13--14---15----11-11-11-10-----8-10-11-11-11-10-----8-10---|
G|--------------------------11--12--13----14-------------7-9------------------7-9--------|
D|---------------------------------------------------------------------------------------|
A|---------------------------------------------------------------------------------------|
E|---------------------------------------------------------------------------------------|

Verse B: Rhythm 
e|---------------------------------------------------------------------------------------|
B|10--10---10-10-10-11---12---10-10-10--11-11-11-10-8-8-8-10-11-11-11-10-8-8-8-10--------|
G|--11--11------------11---11------------------------------------------------------------|
D|---------------------------------------------------------------------------------------|
A|---------------------------------------------------------------------------------------|
E|---------------------------------------------------------------------------------------|

Chorus 1:  

A   F#   
       Nobody wanted to be 

A   F#
Vienna II, Somebody had to 


Chorus 2: 

A   F#   
       Nobody wanted to be 

A   F#
Vienna II, Somebody had to 

A   B   
Vienna II, So I let it be 

A   B  
Vienna II, Let it be me 


Outro: 

e|---------------|
B|11-11-11-10-8--|
G|---------------|
D|---------------|
A|---------------|
E|---------------|

************************************

| /   slide up
| \   slide down
| h   hammer-on
| p   pull-off
| ~   vibrato
| +   harmonic
| x   Mute note
| b   Bend
| pb  Pre-bend
| br  Bend release
| pbr Pre-bend release
| brb Bend release bend

************************************
Добавлено: 15.09.2014
Другие материалы по этой песне:
  • Аккорды и текст

Страница создана 15.09.2014
http://primanota.ru/parquet-courts/vienna-ii-chords.htm
Привет, Гость.
Предлагаем пройти революционный курс по гитаре.
Подарок от PrimaNota.Ru, забирай!