PrimaNota.ru - самый крупный в мире бесплатный архив песенных текстов, аккордов, табулатур и нот


Parquet Courts - Tears O Plenty - таба, видео

Регистрация Запомнить меня
Войти через:  Facebook Google Twitter Vk Yandex Mail.ru

Parquet Courts - Tears O Plenty - таба, видео

Печатать
Просмотров: 81
Found the main riff while messing round, pretty niiiice.

e|----------------------------------------------------------------|
B|----------------------------------------------------------------|
G|----------------------------------------6-----9---7---6---------|
D|--------6-----9---7---6---------7---7-----7---------------7---9-|
A|7---7-----7---------------7---9---------------------------------|
E|----------------------------------------------------------------|

alternate ver.
e|----------------------------------------------------------------|
B|----------------------------------------2-----5---3---2---------|
G|--------1-----4---2---1---------2---2-----2---------------2---4-|
D|2---2-----2---------------2---4---------------------------------|
A|----------------------------------------------------------------|
E|----------------------------------------------------------------|

also here's the chords, at least from what I can tell;
                            
   E7no5  A             E11no5  A
e|--0-----5---|       e|--0-----0---|
B|--5-----5---|       B|--3-----2---|
G|--7-----6---|  or   G|--1-----2---|
D|--6-----7---|       D|--2-----2---|
A|--7-----7---|       A|--0-----0---|
E|--0-----5---|       E|--0---------|

aaaand, I think this is the bass;

G|------------------------------------------------------------------|
D|------------------------------------------------------------------|
A|5-7-7-x-5-7-7-x-5-7-7-x-5-7-7-x-5-------------------------------x-|
E|----------------------------------5-5-5-5-5-5-5-5-5-5-5-5-5-5-5---|

E7no5                   A
I drank right from your tears of plenty and
E7no5               A
I exchanged all the gifts you sent me.
E7no5             A
Dreary beats over fast-rapped verses
E7no5                     A
Leaked through windows in hatchback hearses.

I'm just guessing here, input is totally welcome.              
e|----------------------------------------------------------------|
B|----------------------------------------------------------------|
G|7---7---7-7-6-7---7---7-7-6-7~----7-6---6-4---4-2---2-2-0-0-----|
D|----------------------------------------------------------------|
A|----------------------------------------------------------------|
E|----------------------------------------------------------------|
                              ---x4---
 
Snackers conference at the buffet table
Double dip in the goose pate mold.
Posthumous pranks left in the casket.
Plain Jane shining in her spotlight moment.

this is even more guess work, again input is welcome.
e|------------------------------------------------------------|
B|5---5---5-5-3-5---5---5-5-3-5---5-8---8-5---5-8---8-5---8---|
G|------------------------------------------------------------|
D|------------------------------------------------------------|
A|------------------------------------------------------------|
E|------------------------------------------------------------|
             repeat other solo riff x2, then this x2

She lived for the same moments we did:
Morning coffee refilled and endless.
He stumbled into some dinero.
Weeping at the wake like a Catholic hero.

end on E7no5
Добавлено: 08.06.2015
Другие материалы по этой песне:
  • Аккорды и текст

Страница создана 08.06.2015
http://primanota.ru/parquet-courts/tears-o-plenty-chords.htm
Привет, Гость.
Предлагаем пройти революционный курс по гитаре.
Подарок от PrimaNota.Ru, забирай!