PrimaNota.ru - самый крупный в мире бесплатный архив песенных текстов, аккордов, табулатур и нот


Parquet Courts - Shes Rolling - таба, видео

Регистрация Запомнить меня
Войти через:  Facebook Google Twitter Vk Yandex Mail.ru

Parquet Courts - Shes Rolling - таба, видео

Печатать
Просмотров: 72
Уроки эстрадного вокала в Санкт-Петербурге
She's Rolling - Parquet Courts
Sunbathing Animal - 2014
~~~~~~~~~~~~~~~~~~~~~~~~~~~~~~~~~~~~~~~~~~~~~~~~~~~~~~~~~~~~

G|--------------------------------|
D|--------------------------------|
A|--------------------------------| Bass Riff
E|--5---5---5---5---5---5---5---4-|



e|------------------------------------------------------|
B|------------------------------------------------------|
G|--------6~--------------------------------------------| 
D|------------------5-\-7-------------------------------| x2
A|--7-----------7-----------7----\9---------------------|
E|--------------------------------------9-----7-----5---|

e|--------------------------------------------------------------------|
B|--------------------------------------------------------------------|
G|--------------------------------9-----12----12-/--9-----------------| x1
D|--7-----7-\-9-----11------11--------------------------11---9-\7---5-|
A|--------------------------------------------------------------------|
E|--------------------------------------------------------------------|

e|------------------------------------------------------|
B|------------------------------------------------------|
G|--------6~--------------------------------------------| 
D|------------------5-\-7-------------------------------| x1
A|--7-----------7-----------7----\9---------------------|
E|--------------------------------------9-----7-----5---|

  She's rolling..
e|------------------------------------------------------|
B|------------------------------------------------------|
G|--------6~--------------------------------------------| 
D|------------------5-\-7-------------------------------|
A|--7-----------7-----------7----\9---------------------|
E|--------------------------------------9---9-7-----5---|

   And,  I~...
e|----------------------------------------------------------------------|
B|--------3---3---3---3---3---3---3---3---3---3---3---3---3---3---3---3-|
G|--------4---4---4---4---4---4---4---4---4---4---4---4---4---4---4---4-|
D|--------5---5---5---5---5---5---5---5---5---5---5---5---5---5---5---5-|
A|--------5---5---5---5---5---5---5---5---5---5---5---5---5---5---5---5-|
E|--5-----3---3---3---3---3---3---3---3---3---3---3---3---3---3---3---3-|

e|----------------------------------------------------------------|
B|--3---3---3---3---3---3---3---3---3---3---3---3---3---3---4---4-|
G|--4---4---4---4---4---4---4---4---4---4---4---4---4---4---5---5-|
D|--5---5---5---5---5---5---5---5---5---5---5---5---5---5---6---6-|
A|--5---5---5---5---5---5---5---5---5---5---5---5---5---5---6---6-|
E|--3---3---3---3---3---3---3---3---3---3---3---3---3---3---4---4-|

e|------------------------------------------------|
B|------------------------------------------------|
G|--6~--------------------------------------------| 
D|------------5-\-7-------------------------------| x1
A|--------7-----------7----\9---------------------|
E|--------------------------------9-----7-----5---|

  She's racing..
e|------------------------------------------------------|
B|------------------------------------------------------|
G|--------6~--------------------------------------------| 
D|------------------5-\-7-------------------------------| x1
A|--7-----------7-----------7----\9---------------------|
E|--------------------------------------9-----7-----5---|

   And,  I~...
e|----------------------------------------------------------------------|
B|--------3---3---3---3---3---3---3---3---3---3---3---3---3---3---3---3-|
G|--------4---4---4---4---4---4---4---4---4---4---4---4---4---4---4---4-|
D|--------5---5---5---5---5---5---5---5---5---5---5---5---5---5---5---5-|
A|--------5---5---5---5---5---5---5---5---5---5---5---5---5---5---5---5-|
E|--5-----3---3---3---3---3---3---3---3---3---3---3---3---3---3---3---3-|

e|----------------------------------------------------------------|
B|--3---3---3---3---3---3---3---3---3---3---3---3---3---3---4---4-|
G|--4---4---4---4---4---4---4---4---4---4---4---4---4---4---5---5-|
D|--5---5---5---5---5---5---5---5---5---5---5---5---5---5---6---6-|
A|--5---5---5---5---5---5---5---5---5---5---5---5---5---5---6---6-|
E|--3---3---3---3---3---3---3---3---3---3---3---3---3---3---4---4-|

e|------------------------------------------------|
B|------------------------------------------------|
G|--6~--------------------------------------------| 
D|------------5-\-7-------------------------------| x1
A|--------7-----------7----\9---------------------|
E|--------------------------------9-----7-----5---|

and it goes from there, I haven't gotten the solo(s) yet, but this is the meat and bones of the song here.

Добавлено: 02.03.2016
Другие материалы по этой песне:
  • Аккорды и текст

Страница создана 02.03.2016
http://primanota.ru/parquet-courts/shes-rolling-chords.htm
Привет, Гость.
Предлагаем пройти революционный курс по гитаре.
Подарок от PrimaNota.Ru, забирай!