PrimaNota.ru - самый крупный в мире бесплатный архив песенных текстов, аккордов, табулатур и нот


Parquet Courts - Outside - таба, видео

Регистрация Запомнить меня
Войти через:  Facebook Google Twitter Vk Yandex Mail.ru

Parquet Courts - Outside - таба, видео

Печатать
Просмотров: 58
Новый альбом группы 'Черный Кузнец' по культовому сериалу 'Сверхъестественное'!
[Verse] 

Just strum the pattern with these chords.

e|----6----4----8----6----1----4---------------------------------------------------|
B|----8----4----8----6----1----4---------------------------------------------------|
G|----8----5----9----7----2----5---------------------------------------------------|
D|----8----6----10---8----3----6---------------------------------------------------|  x3 
A|----6----6----10---8----3----6---------------------------------------------------|
E|---------4----8----6----1----4---------------------------------------------------|

e|----6----4----8----6-------------------------------------------------------------|
B|----8----4----8----6-------------------------------------------------------------|
G|----8----5----9----7-------------------------------------------------------------|
D|----8----6----10---8-------------------------------------------------------------|  x1 
A|----6----6----10---8-------------------------------------------------------------|
E|---------4----8----6-------------------------------------------------------------|


[Pre-Chorus]

e|----1----4----1----4----1----|
B|----1----4----1----4----1----|
G|----2----5----2----5----2----|
D|----3----6----3----6----3----|
A|----3----6----3----6----3----|
E|----1----4----1----4----1----|


[Chorus]

e|----4----4----6----6----1----4---------------------------------------------------|
B|----6----4----8----6----1----4---------------------------------------------------|
G|----6----5----8----7----2----5---------------------------------------------------|
D|----6----6----8----8----3----6---------------------------------------------------|
A|----4----6----6----8----3----6---------------------------------------------------|
E|---------4---------6----1----4---------------------------------------------------|


Order:

Verse
Pre-Chorus
Chorus
Verse
Pre-Chorus
Chorus (Don't play the G# bar chord and end on the F)
Добавлено: 20.01.2018
Другие материалы по этой песне:
  • Аккорды и текст

Страница создана 20.01.2018
http://primanota.ru/parquet-courts/outside-chords.htm
Привет, Гость.
Предлагаем пройти революционный курс по гитаре.
Подарок от PrimaNota.Ru, забирай!