PrimaNota.ru - самый крупный в мире бесплатный архив песенных текстов, аккордов, табулатур и нот


Parquet Courts - Careers In Combat - таба, бас-таба, видео

Регистрация Запомнить меня
Войти через:  Facebook Google Twitter Vk Yandex Mail.ru

Parquet Courts - Careers In Combat - таба, бас-таба, видео

Печатать
Просмотров: 143
Новый альбом группы 'Черный Кузнец' по культовому сериалу 'Сверхъестественное'!
Авторы: Parquet Courts

Parquet Courts – Careers In Combat
Tuning: Drop D

Rhythm guitar chords:

    D    E    G
e|-------------------------------| 
B|-------------------------------| 
G|-------------------------------| 
D|--0----2----5------------------| 
A|--0----2----5------------------| 
D|--0----2----5------------------|

Lead:

    D                            
e|-------------------------------|
B|--7--7--7--5-------------------|
G|--x--x--x----7-----------------|
D|--7--7--7-------7--7--7--------|
A|-------------------------------|
D|-------------------------------|
  Part A


    D

e|------------------------------------|
B|--5--5--5---------------------------|
G|--x--x--x--7--6--4--2--4------------|
D|--7--7--7---------------------------|
A|------------------------------------|
D|------------------------------------|
   Part B


    E           G
e|------------------------------------|
B|--5--5--5-----8--8--8--8---5--------|
G|-----------7-------------7----------|
D|------------------------------------|
A|------------------------------------|
D|------------------------------------|
   Part C

Intro - A A A A
Verse - A A A B
Chorus - C A C
Break - A A A B
Verse - A A A A
Chorus - C A C
Break - A A B A
Chorus - C A C
Добавлено: 10.03.2014
Другие материалы по этой песне:
  • Аккорды и текст

Страница создана 10.03.2014
http://primanota.ru/parquet-courts/careers-in-combat-chords.htm
Привет, Гость.
Предлагаем пройти революционный курс по гитаре.
Подарок от PrimaNota.Ru, забирай!