PrimaNota.ru - самый крупный в мире бесплатный архив песенных текстов, аккордов, табулатур и нот


Parov Stelar - Nobodys Fool - текст песни, бас-таба, видео

Регистрация Запомнить меня
Войти через:  Facebook Google Twitter Vk Yandex Mail.ru

Parov Stelar - Nobodys Fool - текст песни, бас-таба, видео

Печатать
Просмотров: 237
-------------------------------------------------------------------------------
                                Parov Stelar - Nobody's Fool
-------------------------------------------------------------------------------

Tabbed By : SpectralBanshee
e-mail: 

Tuning: Standard

G|-----------------------|
D|-----------------------|
A|-11---9---7--7--6------| x3
E|-----------------------|

G|-------------------------------------------------------------------|
D|-------------------------------------------------------------------|
A|-11--11--11-11-11-11--9--9--9-9-9-9--7--7--7-7-7-7--7--7--6-6-6-6--| x2
E|-------------------------------------------------------------------|


G|------------------------------------------------------------------------------|
D|-------------------9--14-14-14--13-11--9--11-11-11--12-13-----13-13-13--11\6--|
A|-11--9--11--11-9-7-----------------------------------------13-----------------|
E|------------------------------------------------------------------------------|

G|----------------------------------------------------------------|
D|-------------------9--------------------------88-13-13-13\11\6--|
A|-9--11-11-11--9--7---7-7-7-6-4--2--4-4-4-5-66-------------------|
E|----------------------------------------------------------------|

G|------------------------------------------------------------------------------|
D|---------------9--14-14-14--13-11--9--11-11-11--12-13-----13-13-13--11\6------|
A|-9--11--11-9-7-----------------------------------------13---------------------|
E|------------------------------------------------------------------------------|

G|----------------------------------------------------------------|
D|-------------------9--------------------------88-13-13-----13---|
A|-9--11-11-11--9--7---7-7-7-6-4--2--4-4-4-5-66----------1313-----|
E|----------------------------------------------------------------|


G|------------------------------------------|
D|---------------------------------6/8-6----|
A|-11---7----6----6--4-----/7--7696-----76--|
E|----------------------0-------------------|

G|---------------------------------------|
D|---------2/4-2-----------6/8-6---------|
A|---6/7-62-----24-----7696------76------|
E|-0----7----------0----------------4\0--|

G|------------------------------------------------------------------------------|
D|-------------------9--14-14-14--13-11--9--11-11-11--12-13-----13-13-13--11\6--|
A|-11--9--11--11-9-7-----------------------------------------13-----------------|
E|------------------------------------------------------------------------------|

G|----------------------------------------------------------------|
D|-------------------9--------------------------88-13-13-13\11\6--|
A|-9--11-11-11--9--7---7-7-7-6-4--2--4-4-4-5-66-------------------|
E|----------------------------------------------------------------|

G|------------------------------------------------------------------------------|
D|-------------------9--14-14-14--13-11--9--11-11-11--12-13-----13-13-13--11\6--|
A|-11--9--11--11-9-7-----------------------------------------13-----------------|
E|------------------------------------------------------------------------------|

G|----------------------------------------------------------------|
D|-------------------9--------------------------88-13-13-13\11\6--|
A|-9--11-11-11--9--7---7-7-7-6-4--2--4-4-4-5-66-------------------|
E|----------------------------------------------------------------|

G|----------------------------------------------------------|
D|----------------------------------------------------------|
A|-11-9--11-11-11-9-7--6--7-7-7-6-4--2--4-4-4-5-6--4-6-6-6--| x2
E|----------------------------------------------------------|


| /  slide up
| \  slide down
| h  hammer-on
| p  pull-off
| ~  vibrato
| +  harmonic
| x  Mute note
===============================================================================
Добавлено: 03.11.2013
Другие материалы по этой песне:
  • Аккорды и текст

Страница создана 03.11.2013
http://primanota.ru/parov-stelar/nobodys-fool-chords.htm
Привет, Гость.
Предлагаем пройти революционный курс по гитаре.
Подарок от PrimaNota.Ru, забирай!