PrimaNota.ru - самый крупный в мире бесплатный архив песенных текстов, аккордов, табулатур и нот


Parokya Ni Edgar - Harana Live - бас-таба, видео

Регистрация Запомнить меня
Войти через:  Facebook Google Twitter Vk Yandex Mail.ru

Parokya Ni Edgar - Harana Live - бас-таба, видео

Печатать
Просмотров: 92
Title : Harana  (BASS lines)
Artist : Parokya ni Edgar
Album : inuman Sessions live

Tabbed by jonathan david (Angeles city science high school)

Tuning : standard
		E
          A
          D
          G



INTRO 

G|------4----/7---------4----5-4--------------------------|
D|---5/7--5---------5/7---5------5--/7-5----------55-5----|
A|---------------------------------------/7-5—5h7------7-5|
E|--------------------------------------------------------|
        G      C9        G     C9  G        C9     G     C9

G|-----------------------|
D|------5-7--------------|
A|---/7------------------|
E|-----------------------|


VERSE

G|---------------------------------------------------|
D|---------------------6/7---------------------------|
A|----3---3h5-2~---77-7---------------------5--------|
E|--3----3-----------------5-55--7---5-5—5/7---------|


Repeat tpos

G|----7/9-7--------------|
D|---------9-7-----------|
A|--5--------------------|
E|-----------------------|



Comes chorus
(parang verse)
G|---------------------------------------------------|
D|---------------------6/7---------------------------|
A|----3---3h5-2~---77-7---------------------5--------|
E|--3----3-----------------5-55--7---5-5—5/7---------|

Ulet…tapos'

G|-------------------------------------------------------|
D|---------------------6/7-------------------4p2---------|
A|----3---3h5-2~---77-7----------5-55----2------------55-|
E|--3----3-----------------5-55-------000--------5-5-5---|

Yann.

Adlib (bass solo)

G|----17~-------------------------------------------------|
D|------17~------16-17-19-/21---/19-17--17----------------|
A|----------17-19---------------------19-------19-1717----|
E|--------------------------------------------------------|

G|-----------------------------------|
D|----12-------14----16--17--/19-----|
A|--14--14-1414--1414--14------------|
E|-----------------------------------|


 un lang ...salamat po.

\m/
Добавлено: 24.07.2012
Другие материалы по этой песне:
  • Аккорды и текст

Страница создана 24.07.2012
http://primanota.ru/parokya-ni-edgar/harana-live-chords.htm
Привет, Гость.
Предлагаем пройти революционный курс по гитаре.
Подарок от PrimaNota.Ru, забирай!