PrimaNota.ru - самый крупный в мире бесплатный архив песенных текстов, аккордов, табулатур и нот


Parokya Ni Edgar - 3 Stars And The Sun - таба, видео

Регистрация Запомнить меня
Войти через:  Facebook Google Twitter Vk Yandex Mail.ru

Parokya Ni Edgar - 3 Stars And The Sun - таба, видео

Печатать
Просмотров: 111
Parokya Ni Edgar Inuman Sessions Vol.1
feat. Francis M
3 Stars and a Sun
Tabbed By: Janno Baiño -- ninejanno.multiply.com/
/ - slide
h - hammer
v - vibrato

e-----------------------------------------|
B-----------------------------------------|
G—--7--7-7---7--7-7---7--7-7---7--7-7-----|
D—-7--7-----6--6-----5--5-----7--7--------|  (twice)
A-5--5--5--5--5--5--5--5--5--5--5-5-------|
E-----------------------------------------|


e-----------------------------------------|
B-----------------------------------------|
G—777777--777777--777777--777777----------|
D—777777--666666--555555--777777----------|
A-555555--555555--555555--555555----------|
E-----------------------------------------|

(much better to use vibrato in the start of adlib)

e------------------------------------------------------------------|
B------------------------------------------------------------------|
G------------------------------------------------------------------|
D---------15-16------------15-16-17-16-----------------------------|
A-17vvvv-17-----17vvvvv--17-----------17---------------------------|
E------------------------------------------------------------------|

e----------          ----------------------------------------------|
B----------          ----------------------------------------------|
G----------(thrice)  ----------------------------------------------|
D----------          ----------------------------------------------|
A------15--          ----15h17-------------------------------------|
E-15/17----          -17-------------------------------------------|


e------------------------------------------------------------------|
B------22-20-19----------22-20-19----------------------------------|
G-17h19--------19---17h19--------19--17----------------------------|
D------------------------------------------------------------------|
A------------------------------------------------------------------|
E------------------------------------------------------------------|

e------15-- (thrice) ----15h17-------------------------------------|
B-15/17----          -17-------------------------------------------|
G------------------------------------------------------------------|
D------------------------------------------------------------------|
A------------------------------------------------------------------|
E------------------------------------------------------------------|
Добавлено: 27.02.2012
Другие материалы по этой песне:
  • Аккорды и текст

Страница создана 27.02.2012
http://primanota.ru/parokya-ni-edgar/3-stars-and-the-sun-chords.htm
Привет, Гость.
Предлагаем пройти революционный курс по гитаре.
Подарок от PrimaNota.Ru, забирай!