PrimaNota.ru - самый крупный в мире бесплатный архив песенных текстов, аккордов, табулатур и нот


Parliament - Night Of The Thumpasorus Peoples - бас-таба, видео

Регистрация Запомнить меня
Войти через:  Facebook Google Twitter Vk Yandex Mail.ru

Parliament - Night Of The Thumpasorus Peoples - бас-таба, видео

Печатать
Просмотров: 82
Авторы музыки: Garry Shider, George Clinton, Bootsy Collins

-------------------------------------------------------------------------------
                  Night of the thumpasorus peoples - Parliament
-------------------------------------------------------------------------------


G|-------------------|--------------------|
D|--------5-2--------|-5-3-0-2------------|
A|------------5\8----|--------------------|
E|--0-0-0---------0-0|---------4-5-6-7----|

G|-------------------|--------------------|-----------|
D|-------------------|--------------------|-----------|
A|--5-4-0------------|--3-2---------------|-540-32----|
E|-------------------|------3-------------|-------3---|

G|-------------------|--------------------|---------------5---------------|
D|------5------------|-------5------------|-------5-----7---7-5-3-5---3-5-|
A|0-3-5--535---------|-0-3-5--535---------|-0-3-5--535--------------3-----|
E|-----------5-4-3-4-|------------5-4-3-4-|-------------------------------|

G|-----------------------|
D|-------5-------------3-|
A|-0-3-5--535--------5---|
E|-----------5-4-3-4-----|

| /  slide up
| \  slide down
| h  hammer-on
| p  pull-off
| ~  vibrato
| +  harmonic
| x  Mute note
===============================================================================
Добавлено: 10.12.2015
Другие материалы по этой песне:
  • Аккорды и текст

Страница создана 10.12.2015
http://primanota.ru/parliament/night-of-thumpasorus-peoples-chords.htm
Привет, Гость.
Предлагаем пройти революционный курс по гитаре.
Подарок от PrimaNota.Ru, забирай!