PrimaNota.ru - самый крупный в мире бесплатный архив песенных текстов, аккордов, табулатур и нот


Parkway Drive - Pressures - таба, видео

Регистрация Запомнить меня
Войти через:  Facebook Google Twitter Vk Yandex Mail.ru

Parkway Drive - Pressures - таба, видео

Печатать
Просмотров: 176
Уроки эстрадного вокала в Санкт-Петербурге
[Pressures]
[Deep Blue]
[Parkway Drive]

Tuning: A#FA#D#GC (Drop A# / 2 Steps Down From Drop D)
joshuaoliveira@hotmail.com

As Requested By: ninjagayden777

[Riff 1a] - [00:00] - [00:14]
- -------------------------------------------------------------|
- -------------------------------------------------------------|
- -------------------------------------------------------------|
- -----------------------------0-------------------------------|
- ---------------8-8---7-7---7-0-----------------8-8---7-7---7-|
- -------------5-----8-----3---0---------------5-----8-----3---|
AP             ...............                 ...............

[Riff 1b] - [00:00] - [00:14]
- -------------------------------------------------------------------|
- -------------------------------------------------------------------|
- -------------------------------------------------------------------|
- ----------------------------------0--------------------------------|
- ---------------12-12----10-10---8-0-------------12-12----10-10---8-|
- -------------8-------12-------7---0-----------8-------12-------7---|
AP             ....................             ....................

----------------------------------------------------------------------------

[Riff 2a] - [00:14] - [00:28]
- --------------------------------------------------------------|
- --------------------------------------------------------------|
- -------------10\9-9\3-9---7/9-------------10\5-5/10-9---10-10-|
- -0~----\\\\\\x--x-x-x-x---x-x-0~----------x--x-x-x--x---x--x--|
- -0~----\\\\\\8-\7-7\1-7---5/7-0~----------8-\3-3/8--7---8--8--|
- -0~----\\\\\\-----------------0~------------------------------|

[Riff 2b] - [00:14] - [00:28]
- ------------------------------------------------------------------|
- ------------------------------------------------------------------|
- -------------14\12-12\7-12--10/12-------------14\9-9/14-12--14-14-|
- -0~----------x--x--x--x-x---x--x--0~----\\\\\\x--x-x-x--x---x--x--|
- -0~----------12\10-10\5-10--8-/10-0~----\\\\\\12\7-7/12-10--12-12-|
- -0~-------------------------------0~----\\\\\\--------------------|

----------------------------------------------------------------------------

[Riff 3a] - [00:28] - [00:42----------------------------------------| - [2x]
- ------------------------------------------------------------------|
- ------------------------------------------------------------------|
- ------------------------------------------------------------------|
- ------------------------------------------------------------------|
- -0-0-0-0-0-0-0-000-0-0-0-0-0-0-000-0-0-0-0-0-0-0---8-8---7-7---7--|
- -0-0-0-0-0-0-0-000-0-0-0-0-0-0-000-0-0-0-0-0-0-0-5-----8-----3----|
PM ...............................................................
AP                                                 ...............

[Riff 3b] - [00:28] - [00:42---------------------------------------------| - [2x]
- -----------------------------------------------------------------------|
- -----------------------------------------------------------------------|
- -----------------------------------------------------------------------|
- -----------------------------------------------------------------------|
- -0-0-0-0-0-0-0-000-0-0-0-0-0-0-000-0-0-0-0-0-0-0---12-12----10-10---8--|
- -0-0-0-0-0-0-0-000-0-0-0-0-0-0-000-0-0-0-0-0-0-0-8-------12-------7----|
PM ....................................................................
AP                                                 ....................

----------------------------------------------------------------------------

[Riff 4, Guitar 1 & 2] - [00:42] - [00:51]
- -----------------------------------------------------------------|
- -----------------------------------------------------------------|
- -----------------------------------------------------------------|
- -0~--------------------------------------------------------------|
- -0~--------------------------00000-------------------------------|
- -0~--------------------------00000-------------------------------|
PM                             .....
-
- -----------------------------------------------------------------|
- -----------------------------------------------------------------|
- -----------------------------------------------------------------|
- -0---7---7---5-7-8---7-8-10--8-100---7---7---5-7-8-7-5---5-------|
- -0-------------------------------0---------------------8---8-7-5-|
- -0-------------------------------0-------------------------------|
PM                                                   .............
AP     ............................    .............


- ----------------------------------------------------------------|
- ----------------------------------------------------------------|
- ----------------------------------------------------------------|
- -0~--------------------------------------------7-8-7---8-10-8---|
- -0~--------------------------00000------------------------------|
- -0~--------------------------00000------------------------------|
PM                             .....
-
- ----------------------------------------------------------------|
- ----------------------------------------------------------------|
- ----------------------------------------------------------------|
- -0---7---7---5-7-8---7-8-10--8-100---7---7---5-7-8-7---8-10-8---|
- -0-------------------------------0------------------------------|
- -0-------------------------------0------------------------------|
AP     ............................    .............     ....

----------------------------------------------------------------------------

[Riff 5] - [00:51] - [01:01-----------------------------------------| - [2x]
- ------------------------------------------------------------------|
- ------------------------------------------------------------------|
- ------------------------------------------------------------------|
- -0---7---7---5-7-8---7-8-10--8-100---7---7---5-7-8-7-5---5--------|
- -0-------------------------------0---------------------8---8-7-5--|
- -0-------------------------------0--------------------------------|
PM                                                   .............
AP     ............................    .............

----------------------------------------------------------------------------

[Riff 6, Guitar 1 & 2] - [01:01] - [01:10]
- -----------------------------------------------------------------|
- -----------------------------------------------------------------|
- -----------------------------------------------------------------|
- -----------------------------------------------------------------|
- -000-000-----000-000-000---------000-000-----000-000-000---------|
- -000-000-----000-000-000---------000-000-----000-000-000---------|
PM ...............................................................
-
- -----------------------------------------------------------------|
- -----------------------------------------------------------------|
- -----------------------------------------------------------------|
- -0---7---7---5-7-8---7-8-10--8-100---7---7---5-7-8-7-5---5-------|
- -0-------------------------------0---------------------8---8-7-5-|
- -0-------------------------------0-------------------------------|
PM                                                   .............
AP     ............................    .............


- ----------------------------------------------------------------|
- ----------------------------------------------------------------|
- ----------------------------------------------------------------|
- -----------------------------------------------7-8-7---8-10-8---|
- -000-000-----000-000-000---------000-000------------------------|
- -000-000-----000-000-000---------000-000------------------------|
PM .......................................
-
- ----------------------------------------------------------------|
- ----------------------------------------------------------------|
- ----------------------------------------------------------------|
- -0---7---7---5-7-8---7-8-10--8-100---7---7---5-7-8-7---8-10-8---|
- -0-------------------------------0------------------------------|
- -0-------------------------------0------------------------------|
AP     ............................    .............     ....

----------------------------------------------------------------------------

[Riff 7a] - [01:10] - [01:20]
- ---------------------------------|
- ---------------------------------|
- ---------------------------------|
- -5---8---3-------5---8---3-------|
- -5---8---3-------5---8---3-------|
- -5---8---3-------5---8---3-------|

[Riff 7b] - [01:10] - [01:20]
- -----------------------------------------------------------------|
- -------------6---------------------------------------------------|
- -----------------7---5---------------------------5br-------------|
- ---------8---------------7---8---8v----------------------7-------|
- -----5-----------------------------------------------------------|
- -8---------------------------------------------------------------|

AP .........................

- ----------------------------------------------------------|
- ----------------------------------------------------------|
- -5h7p5h7/9-7h9/10-9h10/12-10h12/14-12h14/15-14h15/17------|
- ----------------------------------------------------------|
- ----------------------------------------------------------|
- ----------------------------------------------------------|

- ----------------------17--20--20-----|
- -/18--17--18-18----18------------18\-|
- -------------------------------------|
- -------------------------------------|
- -------------------------------------|
- -------------------------------------|

[Riff 7c] - [01:10] - [01:20]
- -----------------------------------------------------------------|
- -------------3---------------------------------------------------|
- -----------------3---2---------------------------2br-------------|
- -----3---5---------------3---5---5v----------------------3-------|
- -5---------------------------------------------------------------|
- -----------------------------------------------------------------|
AP .........................

- ----------------------------------------------------|
- ----------------------------------------------------|
- -2h3p2h3/5-3h5/7-5h7/9-7h9/10-9h10/12-10h12/14------|
- ----------------------------------------------------|
- ----------------------------------------------------|
- ----------------------------------------------------|

- ----------------------15--17--17-----|
- -/15--13--15-15----15------------15\-|
- -------------------------------------|
- -------------------------------------|
- -------------------------------------|
- -------------------------------------|

----------------------------------------------------------------------------

[Riff 8, Guitar 1 & 2] - [01:20] - [01:29---------------------------| - [2x]
- ------------------------------------------------------------------|
- ------------------------------------------------------------------|
- ------------------------------------------------------------------|
- ------------------------------------------------------------------|
- ---8---8---8---8---7---7---7---7---7---7---7---7---5---5---5---5--|
- -5---5---5---5---8---8---8---8---3---3---3---3---3---3---3---3----|
PM .   .   .   .   .   .   .   .   .   .   .   .   .   .   .   .
-
- -----------------------------------------------------------------|
- -----------------------------------------------------------------|
- -----------------------------------------------------------------|
- -----------------------------------------------------------------|
- ---12--12--12--12--10--10--10--10--10--10--10--10--8---8---8---8-|
- -8---8---8---8---12--12--12--12--7---7---7---7---10--10--10--10--|
PM .   .   .   .   ..  ..  ..  ..  .   .   .   .   ..  ..  ..  ..

----------------------------------------------------------------------------

[Riff 9] - [01:29] - [01:38---------------| - [4x]
- ----------------------------------------|
- ----------------------------------------|
- ----------------------------------------|
- ----------------------------------------|
- -000-000-000---000-000-000--------------|
- -000-000-000---000-000-000--------------|
PM .....................................

----------------------------------------------------------------------------

[Reverse!] - [01:38] - [01:41]

lol anyone else notice that from here on in the song is just everything
thats been played up until now, in reverse order :P even the solo
coming up is structured more or less backwards from the last one aha!
with some minor exceptions here n therr

----------------------------------------------------------------------------

[Riff 9] - [01:41] - [01:51---------------| - [4x]
[Riff 8, Guitar 1 & 2] - [01:51] - [02:00-| - [2x]

----------------------------------------------------------------------------

[Riff 7a] - [02:00] - [02:10]


[Riff 10a] - [02:00] - [02:10]
- ----------17-17--15---------------------------|
- -15-----------------15------15-13--15---------|
- --------------------------------------/14-----|
- ----------------------------------------------|
- ----------------------------------------------|
- ----------------------------------------------|

- -------------------------------------------|
- -------------------------------------------|
- -10h12h14-9h10h12-7h9h10-5h7h9-3h5h7-2h3h5-|
- -------------------------------------------|
- -------------------------------------------|
- -------------------------------------------|

- -----------------------------------------------------------------|
- -------------------------------------------------3---------------|
- ---------2-------------------------------2---3-------------------|
- -3---------------5---------------5---3---------------5---3-------|
- -------------------------------------------------------------5---|
- -----------------------------------------------------------------|
AP                                         .........

[Riff 10b] - [02:00] - [02:10]
- ----------20-20--17---------------------------|
- -18-----------------18------18-17--18---------|
- --------------------------------------/17-----|
- ----------------------------------------------|
- ----------------------------------------------|
- ----------------------------------------------|

- -------------------------------------------------|
- -------------------------------------------------|
- -14h15h17-12h14h15-10h12h14-9h10h12-7h9h10-5h7h9-|
- -------------------------------------------------|
- -------------------------------------------------|
- -------------------------------------------------|



- -----------------------------------------------------------------|
- -------------------------------------------------6---------------|
- ---------5-------------------------------5---7-------------------|
- -7---------------8---------------8---7---------------8---7-------|
- -------------------------------------------------------------8---|
- -----------------------------------------------------------------|
AP                                         .........

----------------------------------------------------------------------------

[Riff 11, Guitar 1 & 2] - [02:10] - [02:19]
- -----------------------------------------------------------------|
- -----------------------------------------------------------------|
- -----------------------------------------------------------------|
- -----------------------------------------------------------------|
- -000-000-----000-000-000---------000-000-----000-000-000---------|
- -000-000-----000-000-000---------000-000-----000-000-000---------|
PM ...............................................................
-
- -----------------------------------------------------------------|
- -----------------------------------------------------------------|
- -----------------------------------------------------------------|
- -0---7---7---5-7-8---7-8-10--8-100---7---7---5-7-8-7-5---5-------|
- -0-------------------------------0---------------------8---8-7-5-|
- -0-------------------------------0-------------------------------|
PM                                                   .............
AP     ............................    .............


- -----------------------------------------------------------------|
- -----------------------------------------------------------------|
- -----------------------------------------------------------------|
- -------------------------------------------------8-7-5---5-------|
- -000-000-----000-000-000---------000-000-----000-------8---8-7-5-|
- -000-000-----000-000-000---------000-000-----000-----------------|
PM ...............................................   .............
-
- -----------------------------------------------------------------|
- -----------------------------------------------------------------|
- -----------------------------------------------------------------|
- -0---7---7---5-7-8---7-8-10--8-100---7---7---5-7-8-7-5---5-------|
- -0-------------------------------0---------------------8---8-7-5-|
- -0-------------------------------0-------------------------------|
PM                                                   .............
AP     ............................    .............

----------------------------------------------------------------------------

[Riff 12] - [02:19] - [02:29]
- -----------------------------------------------------------------|
- -----------------------------------------------------------------|
- -----------------------------------------------------------------|
- -0---7---7---5-7-8---7-8-10--8-100---7---7---5-7-8-7-5---5-------|
- -0-------------------------------0---------------------8---8-7-5-|
- -0-------------------------------0-------------------------------|
PM                                                   .............
AP     ............................    .............

- ----------------------------------------------------------------|
- ----------------------------------------------------------------|
- ----------------------------------------------------------------|
- -0---7---7---5-7-8---7-8-10--8-100---7---7---5-7-8-7---8-10-8---|
- -0-------------------------------0------------------------------|
- -0-------------------------------0------------------------------|
AP     ............................    .............     ....

----------------------------------------------------------------------------

[Riff 4, Guitar 1] - [02:29] - [02:39]

[Riff 13] - [02:29] - [02:39]
- ---------------------------------------------------------------------|
- ---------------------------------------------------------------------|
- ---------------------------------------------------------------------|
- -0---777-777-5-7-888-7-8-101010-8-10-0---777-777-5-7-8-7-5---5-------|
- -0-----------------------------------0---------------------8---8-7-5-|
- -0-----------------------------------0-------------------------------|
PM     ...............................     ...........................

- --------------------------------------------------------------------|
- --------------------------------------------------------------------|
- --------------------------------------------------------------------|
- -0---777-777-5-7-888-7-8-101010-8-10-0---777-777-5-7-8-7---8-10-8---|
- -0-----------------------------------0------------------------------|
- -0-----------------------------------0------------------------------|
PM     ...............................     ..........................
AP                                                   ...     ....

----------------------------------------------------------------------------

[Riff 3a & b] - [02:39] - [02:53] - [2x]

----------------------------------------------------------------------------

[Riff 14a] - [02:53] - [03:06]
- --------------------------------------------------------------|
- --------------------------------------------------------------|
- -------------10\9-9\3-9---7/9-------------10\5-5/10-9---10-10-|
- -0~----//////x--x-x-x-x---x-x-0~----------x--x-x-x--x---x--x--|
- -0~----//////8-\7-7\1-7---5/7-0~----------8-\3-3/8--7---8--8--|
- -0~----//////-----------------0~------------------------------|

[Riff 14b] - [
- ------------------------------------------------------------------|
- ------------------------------------------------------------------|
- -------------14\12-12\7-12--10/12-------------14\9-9/14-12--14-14-|
- -0~----------x--x--x--x-x---x--x--0~----//////x--x-x-x--x---x--x--|
- -0~----------12\10-10\5-10--8-/10-0~----//////12\7-7/12-10--12-12-|
- -0~-------------------------------0~----//////--------------------|

----------------------------------------------------------------------------

[Riff 15a] - [03:06] - [03:20]
- -------------------------------------------------------------|
- -------------------------------------------------------------|
- -------------------------------------------------------------|
- -0---------------------------0-------------------------------|
- -0-------------8-8---7-7---7-0-----------------8-8---7-7---7-|
- -0-----------5-----8-----3---0---------------5-----8-----3---|
AP             ...............                 ...............

[Riff 15b] - [03:06] - [03:20]
- -------------------------------------------------------------------|
- -------------------------------------------------------------------|
- -------------------------------------------------------------------|
- -0--------------------------------0--------------------------------|
- -0-------------12-12----10-10---8-0-------------12-12----10-10---8-|
- -0-----------8-------12-------7---0-----------8-------12-------7---|
AP             ....................             ....................

----------------------------------------------------------------------------

[Riff 16] - [03:20] - [03:23]
- -----------------|
- -----------------|
- -----------------|
- -0---------------|
- -0---------------|
- -0---------------|

----------------------------------------------------------------------------

[Symbols]

AP... Alternate Pick notes with (...) under them
PM... Palm Mute notes with (...) under them
////  Pickslide from bottum to top
\\\\  Pickslide from top to bottum
h     Hammer On
p     Pull Off
/     Slide Up
\     Slide Down
x     Dead Note
~     Let Ring
v     Vibrato
b     Bend
r     Release bend

:)
Добавлено: 10.03.2012
Другие материалы по этой песне:

Страница создана 10.03.2012
http://primanota.ru/parkway-drive/pressures-chords.htm
Привет, Гость.
Предлагаем пройти революционный курс по гитаре.
Подарок от PrimaNota.Ru, забирай!