PrimaNota.ru - самый крупный в мире бесплатный архив песенных текстов, аккордов, табулатур и нот


Parkway Drive - Looks Like Yoda - текст песни, таба, бас-таба, видео

Регистрация Запомнить меня
Войти через:  Facebook Google Twitter Vk Yandex Mail.ru

Parkway Drive - Looks Like Yoda - текст песни, таба, бас-таба, видео

Печатать
Просмотров: 189
Looks Like Yoda - Parkway Drive
-------------------------------------------------------------------------------
Tabbed by: I.BAN.EZ
Email: guitar_tabs007@yahoo.com

Tuning: Drop C (CGCFAD)

My fourth tab :P Please comment and rate :)
I'll add all the harmonized parts later. Email me for questions and corrections.
(I want to make this tab as accurate as possible.)

Riff 1
e|-------------------------------|
B|-------------------------------|
G|-------------------------------|
D|-------------------------------|
A|-0-0-0---0-0-0---0-0-6---0-0-6-|
E|-0-0-0---0-0-0---0-0-6---0-0-6-|
   . .     . .     . .     . . 

Riff 2
e|----------------------------------------------------------|
B|--------------------------------------------------4-------|
G|----------------------------------------------------4-3h4-|
D|----------------------------------------------------------|
A|-0-4-4h7---00-6--6-7-9-7-6h7---0-4-4h7---00-6--6-7--------|
E|-0---------00------------------0---------00---------------|
   .         ..                  .         ..

Riff 3
e|----------------------------------------------------------|
B|-------------------------------------------4--------------|
G|----------------------------------------------4--3--------|
D|----------------------------------------------------[4]~~-|
A|-0-4-4h7---00-6--6-7-9-7-6h7---0-4-4h7---00---------------|
E|-0---------00------------------0---------00---------------|
   .         ..                  .         ..

Riff 4
e|---------------------------------------------------------|
B|---------------------------------------------------------|
G|---------------------------------------------------------|
D|-------------------------------------------------9-------|
A|-0-4-4h7---00-6--6-7-9-7-6h7---0-4-4h7--00-6--6-7--7-6h7-|
E|-0---------00------------------0--------00---------------|
   .         ..                  .        .. 

Riff 5
e|----------------------------------------------------|
B|----------------------------------------------------|
G|-------------------------------------------------7*-|
D|-------------------------------------------4-6------|
A|-0-4-4h7---00-6--6-7-9-7-6h7---0-4-4h7--00-----7----|
E|-0---------00------------------0--------00----------|
   .         ..                  .        ..

Repeat riff 4:
e|---------------------------------------------------------|
B|---------------------------------------------------------|
G|---------------------------------------------------------|
D|-------------------------------------------------9-------|
A|-0-4-4h7---00-6--6-7-9-7-6h7---0-4-4h7--00-6--6-7--7-6h7-|
E|-0---------00------------------0--------00---------------|
   .         ..                  .        .. 

Repeat riff 5:
e|----------------------------------------------------|
B|----------------------------------------------------|
G|-------------------------------------------------7*-|<-- this time
D|-------------------------------------------4-6------|    let it ring
A|-0-4-4h7---00-6--6-7-9-7-6h7---0-4-4h7--00-----7----|
E|-0---------00------------------0--------00----------|
   .         ..                  .        ..

Riff 6
e|----------------------|    |-------------|
B|----------------------|    |-------------|  Do this
G|----------------------|    |-------------|  on the last
D|----------------------|    |-------------|  time.
A|-000--000--000-000-000|    |-6-7-9-7-6h7-|
E|-000--000--000-000-000| 4X |-------------|
   ...  ...  ... ... ...

Repeat riff 4 again:
e|---------------------------------------------------------|
B|---------------------------------------------------------|
G|---------------------------------------------------------|
D|-------------------------------------------------9-------|
A|-0-4-4h7---00-6--6-7-9-7-6h7---0-4-4h7--00-6--6-7--7-6h7-|
E|-0---------00------------------0--------00---------------|
   .         ..                  .        .. 

Repeat riff 5 again:
e|----------------------------------------------------|
B|----------------------------------------------------|
G|-------------------------------------------------7*-|
D|-------------------------------------------4-6------|
A|-0-4-4h7---00-6--6-7-9-7-6h7---0-4-4h7--00-----7----|
E|-0---------00------------------0--------00----------|
   .         ..                  .        ..

Riff 7
e|----------------------------------------------------|
B|--------------------------------------------4-------|
G|---3-3h4----3-4p3-1-0-1-----3-3h4----3--3-4---4-3h4-|
D|----------------------------------------------------|
A|-0-------00--------------0--------00----------------|
E|-0-------00--------------0--------00----------------|
   .       ..              .        ..

Riff 8
e|--------------------------------------------|
B|--------------------------------------------|
G|---3-3h4----3-4p3-1-0-1-----3-3h4--3-4-3-7*-|
D|--------------------------------------------|
A|-0-------00--------------0------------------|
E|-0-------00--------------0------------------|
   .       ..              .
Riff 9        
e|----------------------------|
B|-----4-----2----------------|
G|-3-3---3-3---3-3-4--3-3-1-1-|
D|----------------------------|
A|----------------------------|
E|----------------------------|
   . .   . .   . .    . .
e|----------------------------|
B|-----4-----2----------------|
G|-3-3---3-3---3-3-4--3-3-1-1-|
D|----------------------------|
A|----------------------------|
E|----------------------------|
   . .   . .   . .    . .
e|----------------------------|
B|-----4-----2----------------|
G|-3-3---3-3---3-3-4--3-3-1-1-|
D|----------------------------|
A|----------------------------|
E|----------------------------|  
   . .   . .   . .    . .
e|------------------------------|
B|-----4-----2------------------|
G|-3-3---3-3---3-3-4--3-3-------|
D|------------------------[4]~~-|
A|------------------------------|
E|------------------------------| 2X
   . .   . .   . .    . .

Riff 10
e|---------------------------------|
B|-----3-----3-----3-----3-----3-3-|
G|-3-3---3-3---3-3---3-3---3-3-----|
D|---------------------------------|
A|---------------------------------|
E|---------------------------------|
   . .   . .   . .   . .   . .

e|----------------------------|
B|-----4-----2----------------|
G|-3-3---3-3---3-3-4--3-3-1h4-|
D|----------------------------|
A|----------------------------|
E|----------------------------|  
   . .   . .   . .    . .

e|------------------------------|
B|-----4-----2------------------|
G|-3-3---3-3---3-3-4--3-3-------|
D|------------------------[4]~~-|
A|------------------------------|
E|------------------------------|
   . .   . .   . .    . .

Riff 11
e|------------------------------------|
B|-4-5-4~~--4-5-4~~-------------------|
G|-------------------3-4-3~~--3-4-3~~-|
D|------------------------------------|
A|------------------------------------|
E|------------------------------------|

Riff 12
e|--------------------------------------------|
B|------------------------2-4---2-4-----------|
G|-4-1-3-4-3~~-4-1-3-4-3------4-----4---------|
D|------------------------------------[4]-----|
A|--------------------------------------------|
E|--------------------------------------------|

Riff 13
e|----------------------------------------|
B|-4-5-[4]~~--4-5-[4]~~-------------------|
G|-------------------3-4-[3]~~--3-4-[3]~~-|
D|----------------------------------------|
A|----------------------------------------|
E|----------------------------------------|

Riff 14
e|------------------------------------------------|
B|----------------------------2-4---2-4-----------|
G|-4-1-3-4-[3]~~-4-1-3-4-[3]------4-----4---------|
D|----------------------------------------[4]-----|
A|------------------------------------------------|
E|------------------------------------------------|

Riff 15 slow
e|-----------------------------------------------------------|
B|-----------------------------------------------------------|
G|-----------------------------------------------------------|
D|-----------------------------------------------------------|
A|-0-4-4h7---00-6--6-7-9-7-6h7---0-4-4h7---00-6--6-7-9-7-6h7-|
E|-0---------00------------------0---------00----------------|
   .         ..                  .         ..

Repeat riff 5 but slower:
e|----------------------------------------------------|
B|----------------------------------------------------|
G|-------------------------------------------------7*-|
D|-------------------------------------------4-6------|
A|-0-4-4h7---00-6--6-7-9-7-6h7---0-4-4h7--00-----7----|
E|-0---------00------------------0--------00----------|
   .         ..                  .        ..

Repeat riff 7 but slower
e|----------------------------------------------------|
B|--------------------------------------------4-------|
G|---3-3h4----3-4p3-1-0-1-----3-3h4----3--3-4---4-3h4-|
D|----------------------------------------------------|
A|-0-------00--------------0--------00----------------|
E|-0-------00--------------0--------00----------------|
   .       ..              .        ..

Riff 16
e|---------------------------------------------|
B|-----------------------------------2-4-------|
G|---3-3h4----3-4p3-1-0-1-----3-3h4------4-[3]-|
D|---------------------------------------------|
A|-0-------00--------------0-------------------|
E|-0-------00--------------0-------------------|
   .       ..              .

Riff 17        
e|--------------------------|  
B|-----------------------7*-|    
G|--------------------------|    
D|--------------------------|     
A|-000--000--000-000-000----|    
E|-000--000--000-000-000----| 3X I think
   ...  ...  ... ... ...

| /  slide up
| \  slide down
| h  hammer-on
| p  pull-off
| ~  vibrato
| [ ] pinch harmonic
| x  Mute note
| . palm-mute
| * natural harmonic
===============================================================================
Добавлено: 14.03.2012
Другие материалы по этой песне:

Страница создана 29.02.2012
http://primanota.ru/parkway-drive/looks-like-yoda-chords.htm
Привет, Гость.
Предлагаем пройти революционный курс по гитаре.
Подарок от PrimaNota.Ru, забирай!