PrimaNota.ru - самый крупный в мире бесплатный архив песенных текстов, аккордов, табулатур и нот


Parkway Drive - Leviathan I - текст песни, таба, видео

Регистрация Запомнить меня
Войти через:  Facebook Google Twitter Vk Yandex Mail.ru

Parkway Drive - Leviathan I - текст песни, таба, видео

Печатать
Просмотров: 163
-------------------------------------------------------------------------------
                             Leviathan I - Parkway Drive
-------------------------------------------------------------------------------
Tabbed by: reldask

Tuning: Drop B


heres a re-submit of my first tab. asthetically better for all yous guys. enjoy.
yeah i used UG template and it was in standard tuning, so just know its drop B.



intro/chorus.  repeat once.

e|---------------------------------------------------------------------------|
B|---------------------------------------------------------------------------|
G|-------5---------5---5h7t12p7---------5---------5---5h7t14p7---------------|
D|----5---7-----5---7----------------5---7-----5---7-------------------------|
A|-5---8-----5---8----------------5---8-----5---8----------------------------|
E|--8---------8--------------------8---------8-------------------------------|
    x  x      x  x                 x  x      x  x    
   
e|---------------------------------------------------------------------------|
B|---------------------------------------------------------------------------|
G|------------10\9---7----------------7\5/7----------------------------------|
D|------------x--x---x----------------x-x-x----------------------------------|
A|------------8\-7---5----------------5\3/5----------------------------------|
E|-00-00-0-00------0-----00-00-0-00 -----------------------------------------|
   xx xx x xx      x     xx xx x xx



pre verse

e|---------------------------------------------------------------------------|
B|---------------------------------------------------------------------------|
G|-------5---------5---------5---------5-------------------------------------|
D|----5---7-----5---7-----5---7-----5---7------------------------------------|
A|-5---8-----5---8-----5---8-----5---8------5-7-8-10-------------------------|
E|--8---------8---------8---------8---------5-7-8-10-------------------------|
                                            x x x x



verse riff 1. repeat once.

e|---------------------------------------------------------------------------|
B|---------------------------------------------------------------------------|
G|---------------------------------------------------------------------------|
D|---------------------------------------------------------------------------|
A|--------------------------------5h7h8--------7h8h10------------------------|
E|-000-000-000-000-000-000--5h7h8-------7h9h10-------------------------------|
   xxx xxx xxx xxx xxx xxx 

e|--------------------------------------------------------------------------------------|
B|--------------------------------------------------------------------------------------|
G|----------------------------------------------------------------------10h11h13--------|
D|----------------------------------------------------8h10h11--10h11h13-----------------|
A|------------------------5h7h8--------7h8h10-8h10h11-----------------------------------|
E|-000-000-000-000--5h7h8-------7h9h10--------------------------------------------------|
   xxx xxx xxx xxx 


verse riff 2. repeat like 4 times?   ( )= dont play last time

e|---------------------------------------------------------------------------|
B|---------------------------------------------------------------------------|
G|---------------------------------------------------------------------------|
D|---------------------------------------------------------------------------|
A|-12--10--8--10~--7--8--10--8~--5--5~--3--7~--5--8~--7--(3h5)---------------|
E|---0---0--0-------0--0---0------0------0------0----------------------------|
     x   x  x       x  x   x      x      x      x



chorus with alt chug.

e|---------------------------------------------------------------------------|
B|---------------------------------------------------------------------------|
G|--10\9---7-----------------7\5/7-------------------------------------------|
D|--x--x---x-----------------x-x-x----------------------X2-------------------|
A|--8\-7---5-----------------5\3/5-------------------------------------------|
E|-------------00-00-0-00------------00-00-0-00------------------------------|
               xx xx x xx            xx xx x xx

e|---------------------------------------------------------------------------|
B|---------------------------------------------------------------------------|
G|--10\9---7-------------------7\5/7-----------------------------------------|
D|--x--x---x-------------------x-x-x--------------------X2-------------------|
A|--8\-7---5-------------------5\3/5-----------------------------------------|
E|-------------00-00000-000-------------00-000-00000-------------------------|
               xx xxxxx xxx             xx xxx xxxxx


NOW YOU MUST REPEAT VERSE RIFF 1 AND INTRO RIFF



then chug this

e|---------------------------------------------------------------------------|
B|---------------------------------------------------------------------------|
G|---------------------------------------------------------------------------|
D|---------------------------------------------------------------------------|
A|---------------------------------------------------------------------------|
E|-00~-00~-0~----00~-00~-0~----00~-00~-0~----00~-00~-0~----------------------|
   xx  xx  x     xx  xx  x     xx  xx  x     xx  xx  x


THEN GO BACK TO CHORUS ALT CHUG



then do this little octave number 

e|----------------------------------------------------------------------------|
B|----------------------------------------------------------------------------|
G|--7--5--3--7----5--3--7-----5--3--7-----5--3--------------------------------|
D|--x--x--x--x----x--x--x-----x--x--x-----x--x--0~----------------------------|
A|--5--3--1--5----3--1--5-----3--1--5-----3--1--0~----------------------------|
E|----------------------------------------------0~----------------------------|



chug time
e|----------------------------------------------------------------------------|
B|----------------------------------------------------------------------------|
G|----------------------------------------------------------------------------|
D|-----------------------------------------------------X2---------------------|
A|----------------------------------------------------------------------------|
E|-000-0-000-0-000-0-000-0-000-0-000-0-000-0-000-0-------------000-0-000-0----|
   xxx x xxx x xxx x xxx x xxx x xxx x xxx x xxx x             xxx x xxx x

chuggg
e|---------------------------------------------------------------------------|
B|---------------------------------------------------------------------------|
G|---------------------------------------------------------------------------|
D|-----------------------------------------------------------------x2--------|
A|---------------------------------------------------------------------------|
E|-000-0-000-0-000--0-0-0--0-0-------000-0-000-0-000--0-0-0--0-0-------------|
   xxx x xxx x xxx  x x x  x x       xxx x xxx x xxx  x x x  x x

chugggggg
e|-------------------------------------------------------------------------------|
B|-------------------------------------------------------------------------------|
G|-------------------------------------------------------------------------------|
D|-------------------------------------------------------------------X2----------|
A|-----------------------------------------------------------------------0-------|
E|-000-0-000-0-000-0-000-0-000-000--333-3-555-5-111-1-333-3-111-333------0-------|
   xxx x xxx x xxx x xxx x xxx xxx  xxx x xxx x xxx x xxx x xxx xxx      x






hope you guys liked it. easy song except for the hammer on riff. one of my favorites. 
Добавлено: 15.03.2012
Другие материалы по этой песне:

Страница создана 15.03.2012
http://primanota.ru/parkway-drive/leviathan-i-chords.htm
Привет, Гость.
Предлагаем пройти революционный курс по гитаре.
Подарок от PrimaNota.Ru, забирай!