PrimaNota.ru - самый крупный в мире бесплатный архив песенных текстов, аккордов, табулатур и нот


Parkway Drive - Horizons - текст песни, таба, видео

Регистрация Запомнить меня
Войти через:  Facebook Google Twitter Vk Yandex Mail.ru

Parkway Drive - Horizons - текст песни, таба, видео

Печатать
Просмотров: 502
-------------------------------------------------------------------------------
                             horizons - Parkway Drive
-------------------------------------------------------------------------------
Tabbed by: killedcore
Email: hayley_kirsch@hotmail.com

Tuning: B,F#,B,E,G#,c#

This tabalature remains the property of its owner and is simply and interpritation of 
original artist's work.

This is my tab of the song. i love this band. they are aussies woo.

anyway i realise that the end solo thing might be wrong but i didnt have time to fix it. 
rest is 100% correct. i havent seen a good tab of this so i thought id do pone. 
email them to me.

cheers \,,/

-------------------------------------------------------------------------------


C#|-7------7---7-10------2-------2------5----3-------3-------7-----5-------7-----------|
G#|---0------0------0-------0------0------0-----0------0--------0-----0-------0----7---|
 E|------------------------------------------------------------------------------------|
 B|------------------------------------------------------------------------------------|
F#|-7---7------7---------5-----5-----5--5----3-----3------3--3-----5----5-------5----5-|
 B|------------------------------------------------------------------------------------|


C#|--------------------------------------------------------------------------------------|
G#|--------------------------------------------------------------------------------------|
E|---------------------------------------------------------------------------------------|
 B|------4----5----7----5-5-5-5-5-5-5-5-5-5-5-5-5-5-5-7-7-7-7-7-7-7-7-7-7-7-7-7-7-7-7----|
F#|-2----2----3----5----3-3-3-3-3-3-3-3-3-3-3-3-3-3-3-5-5-5-5-5-5-5-5-5-5-5-5-5-5-5-5----|
 B|-2--------------0---------------------------------------------------------------------|


C#|------------------------------------------------------------------------------------|
G#|------------------------------------------------------------------------------------|
 E|------------------------------------------------------------------------------------|
 B|-5-5-5-5-5-5-5-5-5-5-5-5-5-5-5-5-7-7-7-7-7-7-7-7-7-7-7-7-7-7-7-7--------------------|
F#|-3-3-3-3-3-3-3-3-3-3-3-3-3-3-3-5-5-5-5-5-5-5-5-5-5-5-5-5-5-5-5-5-----------2--------|
 B|---------------------------------------------------------------------------2--------|


C#|----------------------------------------------------------------------|
G#|----------------------------------------------------------------------|
 E|----------------------------------------------------------------------|
 B|----------------------------------------------------------------------|
F#|-------5-7-8-------7-8-10-------3-----8-----7-5-3---------------------|
 B|-0-0-0-------0-0-0--------0-0-0---0-0---0-0---------------------------|


C#|-------------------------------------------------------------------|
G#|-------------------------------------------------------------------|
 E|-------------------------------------------------------------------|
 B|-------------------------------------------------------------------|
F#|-------7-8-10-------8-10-12-------12-----10-----8-7-5--------------|
 B|-5-5-5--------7-7-7---------8-8-8----8-8----8-8--------------------|


C#|----------------------------------------------------------------------------|
G#|----------------------------------------------------------------------------|
 E|----------------------------------------------------------------------------|
 B|----------------------------------------------7-----------------------------|
F#|-0--0--0000---0000---0000---0--0--0000------3---3-----3-2-3-----------------|
 B|-0--0--0000---0000---0000---0--0--0000--000-------000-----------------------|


C#|---------------------------------------------------------------------|
G#|---------------------------------------------------------------------|
 E|---------------------------------------------------------------------|
 B|---------------------------------------------------------------------|
F#|-0--0--0000--0000--0000--0--0--0000--12-12-12-10-10-10-7-7-7---------|
 B|-0--0--0000--0000--0000--0--0--0000--------------------------5-5-5---|


C#|-----------------------------------------------------------------------------------------|
G#|-----------------------------------------------------------------------------------------|
 E|-----------------------------------------------------------------------------------------|
 B|-----------------------------------------------------------------------------------------|
F#|-------8-----7-----7---8-------8-----7-----7---8-------8-----8-7-5-8-------8-----8-7-5-3-|
 B|-8-8-8---8-8---8-8---8---5-5-5---5-5---5-5---5---0-0-0---0-0---------3-3-3---3-3---------|


C#|-------------------------------------------------------------------------------|
G#|-------------------------------------------------------------------------------|
 E|-------------------------------------------------------------------------------|
 B|-------------------------------------------------------------------------------|
F#|-------12-----12-10-8-12---------12-----12-10-8-7---------0--------------------|
 B|-0-0-0----0-0-------------3-3-3-----3-3-------------------0--------------------|


C#|--------------------------------------------------------------------------------------|
G#|--------------------------------------------------------------------------------------|
 E|--------------------------------------------------------------------------------------|
 B|--------------------------------------------------------------------------------------|
F#|-00000000000000000000000000000000000000000000000000000000000000000000000000000000000--|
 B|-00000000000000000000000000000000000000000000000000000000000000000000000000000000000--|


C#|--------------------------------------------------------------------------------------------|
G#|--------------------------------------------------------------------------------------------|
 E|-------------------------9----9--10--9--7-----------------7-9-9-9-------------9--7-9-7-5--4-|
 B|------------7-----------------------------------------7-------------------------------------|
F#|-0-2-3-2----0--0-2-3-2---7----7--8---7--5--0-2-3-2----0---5-7-7-7--0-2-3-2----7--5-7-5-3--2-|
 B|---------5--3----------5---------------------------5--3--------------------5----------------|


C#|---------------------------------------------------------------------------------|
G#|---------------------------------------------------------------------------------|
 E|-----12-14-14-14--16-17--------12-14-14-14--14-12-12-------12-14-14-14--16-17----|
 B|---------------------------------------------------------------------------------|
F#|-3---10-12-12-12--14-15----7---10-12-12-12--12-10-10---3---10-12-12-12--14-15----|
 B|-3-------------------------7---------------------------3-------------------------|


C#|-----------------------------------------------------------------------------------|
G#|-----------------------------------------------------------------------------------|
 E|-----12-14-14-14--12--14--9-10-9-0---7--9--7-9-7-0---------------------------------|
 B|-----------------------------------------------------------------------------------|
F#|-7---10-12-12-12-------------------------------------------------------------------|
 B|-7---------------------------------------------------------------------------------|


C#|-17-19-17-------17-19-17-------17-19-17-------17-19-17-------17-20-17-------17-20-17-------|
G#|----------14-14----------14-14----------14-14----------14-14----------14-14----------14-14-|
 E|-------------------------------------------------------------------------------------------|
 B|-------------------------------------------------------------------------------------------|
F#|-------------------------------------------------------------------------------------------|
 B|-------------------------------------------------------------------------------------------|


C#|-17-20-17-------17-22-17-----------------------------------------------------------|
G#|----------14-14----------14-14-----------------------------------------------------|
 E|-----------------------------------12--14--9-10-9-0--7--9--7-9-7-0-----------------|
 B|-----------------------------------------------------------------------------------|
F#|-----------------------------------------------------------------------------------|
 B|-----------------------------------------------------------------------------------|


C#|-17-5-7-5-17-5-7-5-17-5-7-5-17-5-7-5-17-5-7-5-17-5-7-5-15-5-7-5-15-5-7-5-----------|
G#|-----------------------------------------------------------------------------------|
 E|-----------------------------------------------------------------------------------|
 B|-----------------------------------------------------------------------------------|
F#|-----------------------------------------------------------------------------------|
 B|-----------------------------------------------------------------------------------|
Добавлено: 10.06.2012
Другие материалы по этой песне:

Страница создана 11.03.2012
http://primanota.ru/parkway-drive/horizons-chords.htm
Привет, Гость.
Предлагаем пройти революционный курс по гитаре.
Подарок от PrimaNota.Ru, забирай!