PrimaNota.ru - самый крупный в мире бесплатный архив песенных текстов, аккордов, табулатур и нот


Parkway Drive - Guns For Show Knives For A Pro - таба, видео

Регистрация Запомнить меня
Войти через:  Facebook Google Twitter Vk Yandex Mail.ru

Parkway Drive - Guns For Show Knives For A Pro - таба, видео

Печатать
Просмотров: 249
Dropped B

INTRO: 4x
C#|------------------------------------------------------------------|
G#|------------------------------------------------------------------|
E |------------------------------------------------------------------|  
B |-5-5-5-5---------6-6-6-6----------5-5-5-5---------3-3-3-3---------|
F#|---------3-3-3-3----------3-3-3-3---------3-3-3-3---------1-1-1-1-|
B |------------------------------------------------------------------|

INTRO 2: 4x
C#|------------------------------------------------------------------------|
G#|------------------------------------------------------------------------|
E |------------------------------------------------------------------------|
B |-0-0----0h3p0----0---0-0------0-0----0h3p0----0----0--0h3p0-2h5p2-------|
F#|-0-0-------------0---0-0------0-0-------------0----0--------------3h7p3-|
B |-0-0-------------0---0-0------0-0-------------0----0--------------------|

C#|------------------------------------------------------------------|
G#|------------------------------------------------------------------|
E |------------------------------------------------------------------|  
B |-5-5-5-5---------6-6-6-6----------5-5-5-5---------3-3-3-3---------|
F#|---------3-3-3-3----------3-3-3-3---------3-3-3-3---------1-1-1-1-|
B |------------------------------------------------------------------|

C#|------------------------------------------------------------------|
G#|------------------------------------------------------------------|
E |------------------------------------------------------------------|  
B |-5-5-5-5---------6-6-6-6----------5-5-5-5--0~---------------------|
F#|---------3-3-3-3----------3-3-3-3----------0~---------------------|
B |-------------------------------------------0~---------------------|

VERSE: 4x
C#|------------------------------------------------------------------------|
G#|------------------------------------------------------------------------|
E |------------------------------------------------------------------------|
B |------------5---7---3---0~-------------------3-3-3-3-2-2-2-2---------2~-|
F#|---0~---------------------------0~---3-3-3-3-----------------3-3-3-3----|
B |-0-0~---0-0---0---0---0-------0-0~--------------------------------------|

BREAKDOWN: 2x
C#|------------------------------------------------------------------------|
G#|------------------------------------------------------------------------|
E |------------------------------------------------------------------------|
B |------------------------------------------------------------------------|
F#|--0-1-0--0--------0-1-0--0--------0-1-0--0-------0h1h3p1---0h1h4p1------|
B |--0-1-0--0--0000--0-1-0--0--0000--0-1-0--0--0000---------1~--------3~---|

BREAKDOWN 2: 4x (p.m. all)
C#|------------------------------------------------------------------------|
G#|------------------------------------------------------------------------|
E |------------------------------------------------------------------------|
B |------------------------------------------------------------------------|
F#|--0-1-0--0--------0-1-0--0--------0-1-0--0-------0h1h3p1---0h1h4p1------|
B |--0-1-0--0--0000--0-1-0--0--0000--0-1-0--0--0000---------1~--------3~---|

INTERLUDE THINGY: 2x
C#|----------------------------------------------------------------|
G#|----------------------------------------------------------------|
E |----------------------------------------------------------------|
B |----------------------------------------------------------------|
F#|--0h1h3p1---0h1h4p1---0h3h6p3---0h1h3p1---0h1h4p1---0h3h6p3-----|
B |----------1~--------3~--------0~--------1~--------3~--------0~--|

BREAKDOWN 3:  
C#|---------------------------------------------------------------------|
G#|---------------------------------------------------------------------|
E |---------------------------------------------------------------------|
B |---------------------------------------0h3p0-0h3p0-2h5p2-------------|
F#|--0-0----0--0-0----0--0-0----0--0-0----------------------3h7p3-------|
B |--0-0----0--0-0----0--0-0----0--0-0----------------------------------|

Добавлено: 04.03.2012
Другие материалы по этой песне:

Страница создана 04.03.2012
http://primanota.ru/parkway-drive/guns-for-show-knives-for-a-pro-chords.htm
Привет, Гость.
Предлагаем пройти революционный курс по гитаре.
Подарок от PrimaNota.Ru, забирай!