PrimaNota.ru - самый крупный в мире бесплатный архив песенных текстов, аккордов, табулатур и нот


Parkway Drive - Dont Close Your Eyes - таба, видео

Регистрация Запомнить меня
Войти через:  Facebook Google Twitter Vk Yandex Mail.ru

Parkway Drive - Dont Close Your Eyes - таба, видео

Печатать
Просмотров: 151
Dont Close Your Eyes                               
Parkway drive
Track 1



     E  E  H        E  E     Q    Q    Q    Q       E  E  E  E  E  E  E  E   
E||-----------------------|----------------------|--------------------------|
B||-----------------------|----------------------|--------------------------|
G||-----------------------|----------------------|--------------------------|
D||-----------------------|----------------------|--------------------------|
A||--0--0-----------------|----------------------|--0--0--------------------|
E||--0--0-----------------|----------------------|--0--0--------------------|


  Q    Q    Q    Q       E  E  E  E  E  E  E  E     Q    Q    Q    Q     
----------------------|--------------------------|----------------------|
----------------------|--------------------------|----------------------|
----------------------|--------------------------|----------------------|
----------------------|--------------------------|----------------------|
----------------------|--0--0--------------------|----------------------|
----------------------|--0--0--L--L--L--L--L--L--|--L----L----L----L----|


                             |---3---|   |---3---|   |---3---|   |---3---|   
  E  E  E  E  E  E  E  E     E   E   E   E   E   E   E   E   E   E   E   E   
--------------------------|-------------------------------------------------|
--------------------------|-------------------------------------------------|
--------------------------|-------------------------------------------------|
--------------------------|--0h--3h--7p--0h--3h--7p--0h--3h--5p--0h--3h--5--|
--0--0--------------------|-------------------------------------------------|
--0--0--------------------|-------------------------------------------------|


        |---3---|   |---3---|   |---3---|    
  E  E  E   E   E   E   E   E   E   E   E    
--------------------------------------------|
--------------------------------------------|
--------------------------------------------|
--------------------------------------------|
--0--0--0h--5h--8p--0h--5h--8p--0h--5h--8h--|
--0--0--------------------------------------|


  |---3---|   |---3---|   |---3---|   |---3---|   
  E   E   E   E   E   E   E   E   E   E   E   E   
-------------------------------------------------|
-------------------------------------------------|
-------------------------------------------------|
-------------------------------------------------|
--0h--5h--8p--0h--5h--8p--0h--5h--7p--0h--5h--7--|
-------------------------------------------------|


        |---3---|   |---3---|   |---3---|    
  E  E  E   E   E   E   E   E   E   E   E    
--------------------------------------------|
--------------------------------------------|
--------------------------------------------|
--------------------------------------------|
--0--0--0h--5h--8p--0h--5h--8p--0h--5h--8h--|
--0--0--------------------------------------|


  |---3---|   |---3---|   |---3---|   |---3---|   
  E   E   E   E   E   E   E   E   E   E   E   E   
-------------------------------------------------|
-------------------------------------------------|
-------------------------------------------------|
-------------------------------------------------|
--0h--5h--8p--0h--5h--8p--0h--5h--7p--0h--5h--7--|
-------------------------------------------------|


        |---3---|   |---3---|   |---3---|    
  E  E  E   E   E   E   E   E   E   E   E    
--------------------------------------------|
--------------------------------------------|
--------------------------------------------|
--------------------------------------------|
--0--0--0h--5h--8p--0h--5h--8p--0h--5h--8h--|
--0--0--------------------------------------|


  |---3---|   |---3---|   |---3---|   |---3---|   
  E   E   E   E   E   E   E   E   E   E   E   E   
-------------------------------------------------|
-------------------------------------------------|
-------------------------------------------------|
-------------------------------------------------|
--0h--5h--8p--0h--5h--8p--0h--5h--7p--0h--5h--7--|
-------------------------------------------------|


        |---3---|   |---3---|   |---3---|    
  E  E  E   E   E   E   E   E   E   E   E    
--------------------------------------------|
--------------------------------------------|
--------------------------------------------|
--------------------------------------------|
--0--0--0h--5h--8p--0h--5h--8p--0h--5h--8h--|
--0--0--------------------------------------|


  |---3---|   |---3---|   |---3---|   |---3---|   
  E   E   E   E   E   E   E   E   E   E   E   E   
-------------------------------------------------|
-------------------------------------------------|
-------------------------------------------------|
-------------------------------------------------|
--0h--5h--8p--0h--5h--8p--0h--5h--7p--0h--5h--7--|
-------------------------------------------------|


        |---3---|   |---3---|   |---3---|    
  E  E  E   E   E   E   E   E   E   E   E    
--------------------------------------------|
--------------------------------------------|
--------------------------------------------|
--------0h--3h--7p--0h--3h--7p--0h--3h--7h--|
--0--0--------------------------------------|
--0--0--------------------------------------|


  |---3---|   |---3---|   |---3---|   |---3---|   
  E   E   E   E   E   E   E   E   E   E   E   E   
-------------------------------------------------|
-------------------------------------------------|
-------------------------------------------------|
--0h--3h--7p--0h--3h--7p--0h--3h--5p--0h--3h--5--|
-------------------------------------------------|
-------------------------------------------------|


        |---3---|   |---3---|   |---3---|    
  E  E  E   E   E   E   E   E   E   E   E    
--------------------------------------------|
--------------------------------------------|
--------------------------------------------|
--------0h--3h--7p--0h--3h--7p--0h--3h--7h--|
--0--0--------------------------------------|
--0--0--------------------------------------|


  |---3---|   |---3---|   |---3---|   |---3---|   
  E   E   E   E   E   E   E   E   E   E   E   E   
-------------------------------------------------|
-------------------------------------------------|
-------------------------------------------------|
--0h--3h--7p--0h--3h--7p--0h--3h--5p--0h--3h--5--|
-------------------------------------------------|
-------------------------------------------------|


        |---3---|   |---3---|   |---3---|    
  E  E  E   E   E   E   E   E   E   E   E    
--------------------------------------------|
--------------------------------------------|
--------------------------------------------|
--------0h--3h--7p--0h--3h--7p--0h--3h--7h--|
--0--0--------------------------------------|
--0--0--------------------------------------|


  |---3---|   |---3---|   |---3---|   |---3---|   
  E   E   E   E   E   E   E   E   E   E   E   E   
-------------------------------------------------|
-------------------------------------------------|
-------------------------------------------------|
--0h--3h--7p--0h--3h--7p--0h--3h--5p--0h--3h--5--|
-------------------------------------------------|
-------------------------------------------------|


        |---3---|   |---3---|   |---3---|    
  E  E  E   E   E   E   E   E   E   E   E    
--------------------------------------------|
--------------------------------------------|
--------------------------------------------|
--------0h--3h--7p--0h--3h--7p--0h--3h--7h--|
--0--0--------------------------------------|
--0--0--------------------------------------|


  |---3---|   |---3---|   |---3---|   |---3---|                       
  E   E   E   E   E   E   E   E   E   E   E   E     W                 
-------------------------------------------------|-------------------|
-------------------------------------------------|-------------------|
-------------------------------------------------|-------------------|
--0h--3h--7p--0h--3h--7p--0h--3h--5p--0h--3h--5--|--7----------------|
-------------------------------------------------|--5----------------|
-------------------------------------------------|--5----------------|


  W                    W                   W                 
-------------------|--------------------|-------------------|
-------------------|--------------------|-------------------|
-------------------|--------------------|-------------------|
--8----------------|--10----------------|--3----------------|
--5----------------|---5----------------|--3----------------|
--5----------------|---5----------------|--3----------------|


  W                   W                    W                 
-------------------|-------------------|--------------------|
-------------------|-------------------|--------------------|
-------------------|-------------------|--------------------|
--7----------------|--8----------------|--10----------------|
--5----------------|--5----------------|---5----------------|
--5----------------|--5----------------|---5----------------|


  W                   W                   W                 
-------------------|-------------------|-------------------|
-------------------|-------------------|-------------------|
-------------------|-------------------|-------------------|
--3----------------|--7----------------|--8----------------|
--3----------------|--5----------------|--5----------------|
--3----------------|--5----------------|--5----------------|


   W                   W                   E  E  E   E   E   E   E   E   
--------------------|-------------------|-------------------------------|
--------------------|-------------------|-------------------------------|
--------------------|-------------------|-------------------------------|
--10----------------|--3----------------|--------7p--5h--8p--5h--7p--5--|
---5----------------|--3----------------|--5--5-------------------------|
---5----------------|--3----------------|--5--5-------------------------|


  E  E  E   E   E   E   E   E     E  E  E   E   E   E   E   E   
-------------------------------|-------------------------------|
-------------------------------|-------------------------------|
-------------------------------|-------------------------------|
--------7p--5h--8p--5h--7p--5--|--------7p--5h--8p--5h--7p--5--|
--5--5-------------------------|--5--5-------------------------|
--5--5-------------------------|--5--5-------------------------|


  E  E  E   E   E   E   E   E     E  E  E   E   E   E   E   E   
-------------------------------|-------------------------------|
-------------------------------|-------------------------------|
-------------------------------|-------------------------------|
--------5p--3h--8p--5h--7p--5--|--------7p--5h--8p--5h--7p--5--|
--3--3-------------------------|--5--5-------------------------|
--3--3-------------------------|--5--5-------------------------|


  E  E  E   E   E   E   E   E     E  E  E   E   E   E   E   E   
-------------------------------|-------------------------------|
-------------------------------|-------------------------------|
-------------------------------|-------------------------------|
--------7p--5h--8p--5h--7p--5--|--------7p--5h--8p--5h--7p--5--|
--5--5-------------------------|--5--5-------------------------|
--5--5-------------------------|--5--5-------------------------|


  E  E  E   E   E   E   E   E     E  E  E  E  E  E  E  E   
-------------------------------|--------------------------|
-------------------------------|--------------------------|
-------------------------------|--------------------------|
--------5p--3h--8p--5h--7p--5--|--------7-----8-----7--L--|
--3--3-------------------------|--------------------------|
--3--3-------------------------|--5--5-----5-----5--------|


  E  E  E  E   E  E  E  E     E  E   E  E   E  E   E  E   
---------------------------|-----------------------------|
---------------------------|-----------------------------|
---------------------------|-----------------------------|
--------8-----10-----8--L--|--------10-----12-----10--L--|
---------------------------|-----------------------------|
--7--7-----7------7--------|--8--8------8------8---------|


   E  E  E   E  E  E   E  E     E  E  E   E   E   E   E   E    
-----------------------------|--------------------------------|
-----------------------------|--------------------------------|
--10--8--7------8--7---------|--------------------------------|
------------10--------10--8--|--------5p--0h--7p--0h--8p--0h--|
-----------------------------|--0--0--------------------------|
-----------------------------|--0--0--------------------------|


  E   E   E   E   E   E    E   E      E   E   E   E    E   E    E   E   
-----------------------------------|-----------------------------------|
-----------------------------------|-----------------------------------|
-----------------------------------|-----------------------------------|
--7p--0h--5p--0h--8p--0h--10p--0h--|--8p--0h--7p--0h--10p--0h--12p--0--|
-----------------------------------|-----------------------------------|
-----------------------------------|-----------------------------------|


  S S S S  S  S  S  S S S S S S S S S    E  E  E   E   E   E   E   E    
--------------------------------------|--------------------------------|
--------------------------------------|--------------------------------|
--8-8-8-8-10-10-10-10-8-8-8-8-7-7-7-7-|--------------------------------|
--------------------------------------|--------5p--0h--7p--0h--8p--0h--|
--------------------------------------|--0--0--------------------------|
--------------------------------------|--0--0--------------------------|


  E   E   E   E   E   E    E   E      E   E   E   E    E   E    E   E   
-----------------------------------|-----------------------------------|
-----------------------------------|-----------------------------------|
-----------------------------------|-----------------------------------|
--7p--0h--5p--0h--8p--0h--10p--0h--|--8p--0h--7p--0h--10p--0h--12p--0--|
-----------------------------------|-----------------------------------|
-----------------------------------|-----------------------------------|


  S S S S S S S S S S S S S S S S    E  E  E   E   E   E   E   E    
----------------------------------|--------------------------------|
----------------------------------|--------------------------------|
----------------------------------|--------------------------------|
--7-7-7-7-5-5-5-5-8-8-8-8-7-7-7-7-|--------5p--0h--7p--0h--8p--0h--|
----------------------------------|--0--0--------------------------|
----------------------------------|--0--0--------------------------|


  E   E   E   E   E   E    E   E      E   E   E   E    E   E    E   E   
-----------------------------------|-----------------------------------|
-----------------------------------|-----------------------------------|
-----------------------------------|-----------------------------------|
--7p--0h--5p--0h--8p--0h--10p--0h--|--8p--0h--7p--0h--10p--0h--12p--0--|
-----------------------------------|-----------------------------------|
-----------------------------------|-----------------------------------|


  S S S S  S  S  S  S S S S S S S S S    E  E  E   E   E   E   E   E    
--------------------------------------|--------------------------------|
--------------------------------------|--------------------------------|
--8-8-8-8-10-10-10-10-8-8-8-8-7-7-7-7-|--------------------------------|
--------------------------------------|--------5p--0h--7p--0h--8p--0h--|
--------------------------------------|--0--0--------------------------|
--------------------------------------|--0--0--------------------------|


  E   E   E   E   E   E    E   E      E   E   E   E    E   E    E   E   
-----------------------------------|-----------------------------------|
-----------------------------------|-----------------------------------|
-----------------------------------|-----------------------------------|
--7p--0h--5p--0h--8p--0h--10p--0h--|--8p--0h--7p--0h--10p--0h--12p--0--|
-----------------------------------|-----------------------------------|
-----------------------------------|-----------------------------------|


                                                         PH     
  S S S S S S S S S S S S S S S S    E  E  E  E  E  E    E  E   
----------------------------------|----------------------------|
----------------------------------|----------------------------|
----------------------------------|----------------------------|
--7-7-7-7-5-5-5-5-8-8-8-8-7-7-7-7-|--------7-----8-----<>7--L--|
----------------------------------|----------------------------|
----------------------------------|--5--5-----5-----5----------|


                       PH                              PH     
  E  E  E  E   E  E    E  E     E  E   E  E   E  E     E  E   
-----------------------------|-------------------------------|
-----------------------------|-------------------------------|
-----------------------------|-------------------------------|
--------8-----10-----<>8--L--|--------10-----12-----<>10--L--|
-----------------------------|-------------------------------|
--7--7-----7------7----------|--8--8------8------8-----------|


   E  E  E   E  E  E   E  E      E  E  E   E  E  E   E  E    
-----------------------------|-----------------------------||
-----------------------------|-----------------------------||
--10--8--7------8--7---------|--10--8--7------8--7---------||
------------10--------10--8--|------------10--------10--8--||
-----------------------------|-----------------------------||
-----------------------------|-----------------------------||




Duration Legend
---------------
W - whole
H - half
Q - quarter
E - 8th
S - 16th
T - 32nd
X - 64th
. - note dotted
|-n-|  - n-tuplets


Tablature Legend
----------------
L - tied note
x - dead note
g - grace note
(n) - ghost note
> - accentuded note
NH - natural harmonic
AH - artificial harmonic
TH - tapped harmonic
SH - semi harmonic
PH - pitch harmonic
h - hammer on
p - pull off
b - bend
br - bendRelease
pb - preBend
pbr - preBendRelease
brb - bendReleaseBend
\n/ - tremolo bar dip
\n - tremolo bar dive
-/n - tremolo bar Release up
/n\ - tremolo bar inverted dip
/n - tremolo bar return
-\n - tremolo bar Release down
S - shift slide
s - legato slide
/ -  slide into from below or out of upwards
\ -  slide into from above or out of downwards
~ - vibrato
W - wide vibrato
tr - trill
TP - tremolo picking
T - tapping
S - slap
P - pop
< - fade in
^ - brush up
v - brush down
Добавлено: 18.07.2013
Другие материалы по этой песне:

Страница создана 03.06.2013
http://primanota.ru/parkway-drive/dont-close-your-eyes-chords.htm
Привет, Гость.
Предлагаем пройти революционный курс по гитаре.
Подарок от PrimaNota.Ru, забирай!