PrimaNota.ru - самый крупный в мире бесплатный архив песенных текстов, аккордов, табулатур и нот


Parkway Drive - Dark Days - текст песни, таба, видео

Регистрация Запомнить меня
Войти через:  Facebook Google Twitter Vk Yandex Mail.ru

Parkway Drive - Dark Days - текст песни, таба, видео

Печатать
Просмотров: 647
           Dark Days by Parkway Drive.
 I'll add the solo later. Everything is 100% I kinda got lost track in the middle break 
down a bit but the tab is their and kinda have to figure it out timing wise.
C  :----------------------------------------------------|
G  :----------------------------------------------------|
Eb :----------------------------------------------------|
Ab :----7-8-----8-10-----10-12--12----14----------------|   x6
F  :--0-------0--------0----------12----15--------------|
Ab :0-------0--------0----------------------------------|
    * *     * *      * *
C  :----------------------------------------------------|
G  :----------------------------------------------------|
Eb :----------------------------14b----12b--------------|
Ab :----7-8-----8-10-----10-12------15-----14-----------|   x4
F  :--0-------0--------0--------------------------------|
Ab :0-------0--------0----------------------------------|
    * *     * *      * *
C  :----------------|----------------|------------------|
G  :----------------|----------------|------------------|
Eb :----------------|----------------|------------------|
Ab :8~--------------|----------------|------------------|
F  :8~--------------|----------------|--------12-12-12--|
Ab :8~--------------|----------------|------------------|
    Let ring for Four measures. GTR 2 Pick Scrape

C  :--------------------------|-------------------------|
G  :--------------------------|-------------------------|
Eb :--------------------------|-------------------------|
Ab :--------7---------8-------|--------------5-7-5------|  x4
F  :5-5-8-8---5-5-8-8---5-5-8-|--------5-7-8-------7-5--|
Ab :--------------------------|000-000------------------|
    * * * *   * * * *   * *    *** ***
C  :----------------------------------------------------|
G  :----------------------------------------------------|
Eb :----------------------------------------------------|
Ab :--------7---------8---------------------------------| x4
F  :5-5-8-8---5-5-8-8---5-5--7~-------------------------|
Ab :----------------------------------------------------|
    * * * *   * * * *   * *
C  :---------------------------|
G  :---------------------------|
Eb :---------------------------|
Ab :----------------------7~/--|   Chugging! x2
F  :00-00-0-00-00-0-000---5~/--|
Ab :00-00-0-00-00-0-000--------|
    ** ** * ** ** * ***
    Something like that. Self Explanitory

C  :------------------------------------|
G  :------------------------------------|
Eb :------------------------------------|
Ab :------------------------------------| After the second time play this
F  :000-5-000-7-0-8~~~5--7--3-----------| Something like this.
Ab :000-5-000-7-0-8~~~5--7--3-----------|
    ***   ***   *

C  :----------------|----------------|------------------|
G  :----------------|----------------|------------------|
Eb :----------------|----------------|------------------|
Ab :8~--------------|----------------|------------------|
F  :8~--------------|----------------|--------12-12-12--|
Ab :8~--------------|----------------|------------------|
    Let ring for Four measures. GTR 2 Pick Scrape

C  :--------------------------|-------------------------|
G  :--------------------------|-------------------------|
Eb :--------------------------|-------------------------|
Ab :--------7---------8-------|--------------5-7-5------|  x4
F  :5-5-8-8---5-5-8-8---5-5-8-|--------5-7-8-------7-5--|
Ab :--------------------------|000-000------------------|
    * * * *   * * * *   * *    *** ***
C  :----------------------------------------------------|
G  :----------------------------------------------------|
Eb :----------------------------------------------------|
Ab :--------7---------8---------------------------------| x4
F  :5-5-8-8---5-5-8-8---5-5--7~-------------------------|
Ab :----------------------------------------------------|

C  :---------------------------|
G  :---------------------------|
Eb :---------------------------|
Ab :----------------------7~/--|   Chugging! x2
F  :00-00-0-00-00-0-000---5~/--|
Ab :00-00-0-00-00-0-000--------|
    ** ** * ** ** * ***
    Something like that. Self Explanitory

C  :------------------------------------|
G  :------------------------------------|
Eb :------------------------------------|
Ab :------------------------------------| After the second time play this
F  :000-5-000-7-0-8~~~5--7--3-----------| Something like this.
Ab :000-5-000-7-0-8~~~5--7--3-----------|
    ***   ***   *

I'll add solo later

C  :----------------------------------|
G  :----------------------------------|
Eb :----------------------------------|
Ab :----------------------------------| 1's not 11's
F  :0-0-0-0-0-0-0-0-0-0-0-------------|
Ab :0-0-0-0-0-0-0-0-0-0-0-11111111----|
    * * * * * * * * * * * ********
   Guitar 2
C  :-----------------------|
G  :-----------------------|
Eb :-----------------------|
Ab :----7/8~-----8/7~------|
F  :--0--------0-----------|
Ab :0--------0-------------|
    * *      * *
C  :----------------------------------------------------|
G  :----------------------------------------------------|
Eb :----------------------------------------------------|
Ab :----7-8-----8-10-----10-12--12----14----------------|   x2
F  :--0-------0--------0----------12----15--------------|
Ab :0-------0--------0----------------------------------|
    * *     * *      * *

             BREAKDOWN!!
C  :----------------------------------------|
G  :----------------------------------------|
Eb :-------------------------------------5*-|
Ab :----------------------------------------|
F  :0-0---0-0---0-0------0-0---0-0---0-0----|
Ab :0-0---0-0---0-0------0-0---0-0---0-0----|
        sLOW cHUG

C  :------------------------------------|
G  :------------------------------------|
Eb :-----------------------14B---12B----|
Ab :--------------------------15----14--|
F  :0-0-000-0-0-000-0-0-000-------------|
Ab :0-0-000-0-0-000-0-0-000-------------|
        sLOW cHUG

C  :---------------------------------------------|
G  :---------------------------------------------|
Eb :---------------------------------------------|
Ab :---------------------------------------------|
F  :0-0-000-0-0-000-0-0-000----------------------|
Ab :0-0-000-0-0-000-0-0-000----8~-10~------------|

C  :--------------------------------------------|
G  :--------------------------------------------|
Eb :--------------------------------------------|
Ab :--------------------------------------------| x3
F  :0-0-000-0-0-000-0-0-000-000-000-------------|
Ab :0-0-000-0-0-000-0-0-000-000-000-------------|
       sOME MORE CHUGS

C  :-------------------|
G  :-------------------|
Eb :-------------------|
Ab :-------------------|  End with this!
F  :00~--00~---00------|
Ab :00~--00~---00------|
Добавлено: 12.10.2013
Другие материалы по этой песне:

Страница создана 16.06.2013
http://primanota.ru/parkway-drive/dark-days-chords.htm
Привет, Гость.
Предлагаем пройти революционный курс по гитаре.
Подарок от PrimaNota.Ru, забирай!