PrimaNota.ru - самый крупный в мире бесплатный архив песенных текстов, аккордов, табулатур и нот


Parkway Drive - 10 Years Of Parkway Drive (album) - таба, видео

Регистрация Запомнить меня
Войти через:  Facebook Google Twitter Vk Yandex Mail.ru

Parkway Drive - 10 Years Of Parkway Drive (album) - таба, видео

Печатать
Просмотров: 101
10 Years of Parkway Drive
Guitar Medley by CobjayGuitar 

Hey guys, this is the tab that directly relates to the Parkway Drive medley I made. 
So far I have over 35,000 views on it so I thought I'd tab it for whoever is interested! 

Cheers, Cobjay


0:10 Horizons
(Finger-picked)- Played 5 times

C#|--7-----7-----10-----2-----2-----5-----3-----3-----7----5-----7-----2---|
G#|----0-----0------------0-----0-----------0-----0----------0-----0-------|
E |------0-----0------------0-----0-----------0-----0----------0-----------|
B |--------------------------------------------------------------------0---|
F#|--7-----------10-----2-----------5-----3-----------7----5---------------|
B |------------------------------------------------------------------------|


Guitar 2 (Starts after the second repetition)
C#|-------------------------------------------------------|
G#|-------------------------------------------------------|
E |--------------------------------------------4--5--7----|
B |--2-----2-------------------------------2---4--3--7----|
F#|--2-----2-------------------------------2---2--3--5----|
B |--2-----2-----\\\pick-slide ------------2--------------|

0:49 Five Months
C#|----------------------------------------|
G#|----------------------------------------|
E |------7-10-9------------7-10-9----7-----|
B |-------------10-0-8---8--------10-------|
F#|--8-8-----------------------------------|
B |--8-8-----------------------------------|
     * *           *

C#|----------------------------------------|
G#|----------------------------------------|
E |------7-10-9-------10-9-7---9-7~--------|
B |-------------10-----------0-------------|
F#|--8-8-----------------------------------|
B |--8-8-----------------------------------|
     * *                     *

C#|----------------------------------------|
G#|----------------------------------------|
E |------7-10-9------------7-10-9----7-----|
B |-------------10-0-8---8--------10-------|
F#|--8-8-----------------------------------|
B |--8-8-----------------------------------|
     * *           *

C#|----------------------------------------|
G#|----------------------------------------|
E |------7-10-9-------10-9-7---10-10-7~----|
B |-------------10-----------0-------------|
F#|--8-8-----------------------------------|
B |--8-8-----------------------------------|
     * *                     *



1:01 Boneyards
C#|------------------------------------------------------|
G#|------------------------------------------------------|
E |------------------------------------------------------|
B |------------------------------------------------------|
F#|--0--0-0000-00--00-0-0-0--0000-00--0--0-0000-00-------|
B |--0--0-0000-00--00-0-0-0--0000-00--0--0-0000-00-------|
     *  * **** **  ** * * *  **** **  *  * **** **

C#|----------------------------------------|
G#|----------------------------------------|
E |----------------------------------------|
B |----------5--------8p7p5---5------------|
F#|--0h5h7h8---8p7p5--------8---8p7p5------|
B |----------------------------------------|

C#|------------------------------------------------------|
G#|------------------------------------------------------|
E |------------------------------------------------------|
B |------------------------------------------------------|
F#|--0--0-0000-00--00-0-0-0--0000-00--0--0-0000-00-------|
B |--0--0-0000-00--00-0-0-0--0000-00--0--0-0000-00-------|
     *  * **** **  ** * * *  **** **  *  * **** **

C#|----------------------------------------|
G#|----------------------------------------|
E |----------------------------------------|
B |----------5--------8p7p5---5------------|
F#|--0h5h7h8---8p7p5--------8---8p7p5------|
B |----------------------------------------|

C#|------------------------------------------------------|
G#|------------------------------------------------------|
E |------------------------------------------------------|
B |------------------------------------------------------|
F#|--0--0-0000-00--00-0-0-0--0000-00--0--0-0000-00-------|
B |--0--0-0000-00--00-0-0-0--0000-00--0--0-0000-00-------|
     *  * **** **  ** * * *  **** **  *  * **** **

C#|----------------------------------------|
G#|----------------------------------------|
E |----------------------------------------|
B |------8"-7"-10"-7"-(TREMOLO)------------|
F#|----------------------------------------|
B |----------------------------------------|

C#|------------------------------------------------------|
G#|------------------------------------------------------|
E |------------------------------------------------------|
B |------------------------------------------------------|
F#|--0--0-0000-00--00-0-0-0--0000-00---------------------|
B |--0--0-0000-00--00-0-0-0--0000-00---------------------|
     *  * **** **  ** * * *  **** **  


1:24 Wreckage
C#|-------------------------------------------------|
G#|-------------------------------------------------|
E |-------------------------------------------------|
B |-------------------7h8p7-------------------------|  x4
F#|-------------------------------------------------|
B |-----------------0-------8/10--------------------|

 

C#|--------------------------------------------------|
G#|--------------------------------------------------|
E |--------------------------------------------------|
B |----------7h8p7---7h8p7----8p7--------------------|  x3
F#|--------------------------------------------------|
B |--------0-------8-------10------------------------|

C#|--------------------------------------------------|
G#|--------------------------------------------------|
E |--------------------------------------------------|
B |----------7h8p7---7h8p7---------------------------| 
F#|--------------------------------------------------|
B |--------0-------8---------------------------------|


1:50 Wild Eyes
Guitar Fill
C#|-----------------|
G#|-----------------| 
E |-----------------| 
B |-----------------|
F#|-----------------|
B |---5-5-5--4-2-0--|
      
Guitar 1
C#|--19------19------19------19------15--------15--------14--------14--------|
G#|----17------17------17------17------13--13----13--13----15--15----15------|
E |------16------16------16------16------12--------12--------14--------14----| 
B |--------------------------------------------------------------------------|
F#|--------------------------------------------------------------------------|
B |--------------------------------------------------------------------------|

Guitar 2
C#|----------------------------------|
G#|----------------------------------| 
E |----------------------------------| 
B |--------7\----------------7\------|
F#|-222222-----------222222----------|
B |-222222-----------222222----------|
    ******           ******

Guitar 1
C#|--19------19------19------19------15--------15--------14--------14--------|
G#|----17------17------17------17------13--13----13--13----15--15----15------|
E |------16------16------16------16------12--------12--------14--------14----| 
B |--------------------------------------------------------------------------|
F#|--------------------------------------------------------------------------|
B |--------------------------------------------------------------------------|

Guitar 2
C#|------------------------------------------------------------------|
G#|------------------------------------------------------------------|
E |------------------------------------------------------------------| 
B |--------7\----------------7\--------------------------------------|
F#|-222222-----------222222--------222222-222222-555555-444444-------|
B |-222222-----------222222--------222222-222222-555555-444444-------|
    ******           ******        ****** ****** ****** ******





Guitar 1
C#|--19------19------19------19------15--------15--------14--------14--------|
G#|----17------17------17------17------13--13----13--13----15--15----15------|
E |------16------16------16------16------12--------12--------14--------14----| 
B |--------------------------------------------------------------------------|
F#|--------------------------------------------------------------------------|
B |--------------------------------------------------------------------------|



Guitar 2
C#|----------------------------------|
G#|----------------------------------| 
E |----------------------------------| 
B |--------7\----------------7\------|
F#|-222222-----------222222----------|
B |-222222-----------222222----------|
    ******           ******

2:06 Carrion
c#|-----------------------------------------------------------|
G#|-----------------------------------------------------------|
E |----5-4h5p4-------4---5---4------9-7h9p7-------5---9---7---| 
B |-3-----------0--5---5---5----7------------5--5---5---5-----|
F#|-3-----------0---------------7------------5----------------|
B |-3-----------0---------------7------------5----------------|

c#|-----------------------------------------------------------|
G#|-----------------------------------------------------------|
E |----5-4h5p4-------4---5---4------9-7h9p7-------5---9---7---| 
B |-3-----------0--5---5---5----7------------5--5---5---5-----|
F#|-3-----------0---------------7------------5----------------|
B |-3-----------0---------------7------------5----------------|

c#|--------------|
G#|--------------|
E |--------------|
B |--0---0-------|
F#|--0---0-------|
B |--0---0-------|

2:20 Romance is Dead
C#|------------------------------------------------------------------------------|
G#|------------------------------------------------------------------------------|
E |---------------------------------------------------------10------9-9-------9--|
B |------------------------------------------------------------14-10----10-------| 
F#|-00------0000-0-0-00-00--0000-0-0-00-00--0000-0-0-00-00-----------------12----|
B |-00------0000-0-0-00-00--0000-0-0-00-00--0000-0-0-00-00-----------------------|
    **      **** * * ** **  **** * * ** **  **** * * ** ** 

C#|---------------------------------------------------------------|
G#|---------------------------------------------------------------|
E |---------------------------------------------------------------|
B |---------------------------------------------------------------| 
F#|--0000-0-0-00-00--0000-0-0-00-00--0000-0-0-00-00---------------|
B |--0000-0-0-00-00--0000-0-0-00-00--0000-0-0-00-00---------------|
     **** * * ** **  **** * * ** **  **** * * ** ** 



2:37 Anasasis 

C#|------------------------------------------------------------------------|
G#|----------10------------------------------------------------------------|
E |-10----10----10---------------------------------------------------------|
B |----14----------14------0-----------------0-----------------0-----------|
F#|-------------------0-00-0--0-00-0-00-0-00-0--0-00-0-00-0-00-0--0-00-0-0-|
B |-------------------0-00-0--0-00-0-00-0-00-0--0-00-0-00-0-00-0--0-00-0-0-|
                      * **    * ** * ** * **    * ** * ** * **    * ** * *


C#|----------------------------------------------------------------------|
G#|----------10----------------------------------------------------------|
E |-10----10----10-------------------------------------------------------|
B |----14----------14------0-----------------0-------0-------0-----------|
F#|-------------------0-00-0--0-00-0-00-0-00-0--0-00-0--0-00-0--0-00-0-0-|
B |-------------------0-00-0--0-00-0-00-0-00-0--0-00-0--0-00-0--0-00-0-0-|
                      * **    * ** * ** * **    * **    * **    * ** * *
C#|---------------------------|
G#|----------10---------------|
E |-10----10----10------------|
B |----14----------14---------|
F#|---------------------------|
B |---------------------------|
                      

2:52 Guns for show knives for a pro
C#|------------------------------------------------------------------------|
G#|------------------------------------------------------------------------|
E |------------------------------------------------------------------------|
B |------------------------------------------------------------------------|x3
F#|-0-0----5h8p5----0---0-0------0-0-----5h8p5---0----0-5h8p5-7h10p7-3h7p3-|
B |-0-0-------------0---0-0------0-0-------------0----0--------------------|
    * *             *   * *      * *             *    *

C#|--------------------------------|
G#|--------------------------------|
E |--------------------------------|
B |--------------------------------|
F#|-0-0----5h8p5----0---0-0--------|
B |-0-0-------------0---0-0--------|
    * *             *   * *      

3:17 Home is for the Heartless
C#|----------------------------|
G#|----------------------------|
E |----------------------------|
B |----------------------------|
F#|---0-0----------------------|
B |---0-0----------------------|
      * *

C#|-17p8p7p5-17p8p7p5-17p8p7p5-17p8p7p5---------|
G#|---------------------------------------------|
E |---------------------------------------------|
B |---------------------------------------------|
F#|---------------------------------------------|
B |---------------------------------------------|
    T        T        T        T


C#|-20p8p7p5-20p8p7p5-20p8p7p5-20p8p7p5---------|
G#|---------------------------------------------|
E |---------------------------------------------|
B |---------------------------------------------|
F#|---------------------------------------------|
B |---------------------------------------------|
    T        T        T        T
C#|-19p8p7p5-19p8p7p5-19p8p7p5-19p8p7p5---------|
G#|---------------------------------------------|
E |---------------------------------------------|
B |---------------------------------------------|
F#|---------------------------------------------|
B |---------------------------------------------|
    T        T        T        T

C#|-15p8p7p5-15p8p7p5-15p8p7p5-15p8p7p5---------|
G#|---------------------------------------------|
E |---------------------------------------------|
B |---------------------------------------------|
F#|---------------------------------------------|
B |---------------------------------------------|
    T        T        T        T

C#|-17p8p7p5-17p8p7p5-17p8p7p5-17p8p7p5---------|
G#|---------------------------------------------|
E |---------------------------------------------|
B |---------------------------------------------|
F#|---------------------------------------------|
B |---------------------------------------------|
    T        T        T        T

C#|-20p8p7p5-20p8p7p5-20p8p7p5-20p8p7p5---------|
G#|---------------------------------------------|
E |---------------------------------------------|
B |---------------------------------------------|
F#|---------------------------------------------|
B |---------------------------------------------|
    T        T        T        T

C#|-19p8p7p5-19p8p7p5-19p8p7p5-19p8p7p5---------|
G#|---------------------------------------------|
E |---------------------------------------------|
B |---------------------------------------------|
F#|---------------------------------------------|
B |---------------------------------------------|
    T        T        T        T

3:31 Don't Close your Eyes
C#|-------------------------------------------------|   
G#|-------------------------------------------------|
E |-------------------------------------------------|
B |-------------------------------------------------|  X8
F#|--00---0h5h8-0h5h8-0h5h8-0h5h8-0h5h8-0h5h7-0h5h7-|
B |--00---------------------------------------------|





3:51 Smoke 'Em if ya got 'Em

C#|----------------------------------------------------------------------|
G#|----------------------------------------------------------------------|
E |-------------10P.H----------------------------------------------------|
B |----------------------------------------------------------------------|
F#|-0-000-0-000------0-000-0-000-0-000-0-000------0-000-0-000-0-000-0-0--|
B |-0-000-0-000------0-000-0-000-0-000-0-000-3P.H-0-000-0-000-0-000-0-0--|
    * *** * ***      * *** * *** * *** * ***      * *** * *** * *** * *


Play X 2
C#|----------------------------------------------------------------------|
G#|----------------------------------------------------------------------|
E |----------------------------5h7p5----------------------3--------------|
B |-------\\\\-8-8--7-7--5-7-8-------8-7--7-7--5-5--3-5-7---7-5-3--------|
F#|-slide-\\\\-5-5--5-5-------------------3-3--3-3-----------------------|
B |-------\\\\-5-5--5-5-------------------3-3--3-3-----------------------|
                                                    * * *   * * *


C#|----------------------------------------------------------------------|
G#|-11-11-11-11-11-11-11--10-10-10-10-10-10-10-10------------------------|
E |-x--x--x--x--x--x--x----x--x--x--x--x--x--x--x------------------------|
B |-8--8--8--8--8--8--8----7--7--7--7--7--7--7--7------------------------|
F#|----------------------------------------------------------------------|
B |----------------------------------------------------------------------|

C#|----------------------------------------------------------------------|
G#|-10-10-10-10-10-10-10-8-8-8-8-8-8-8-8---------------------------------|
E |-x--x--x--x--x--x--x--x-x-x-x-x-x-x-x---------------------------------|
B |-7--7--7--7--7--7--7--5-5-5-5-5-5-5-5---------------------------------|
F#|----------------------------------------------------------------------|
B |----------------------------------------------------------------------|


C#|----------------------------------------------------------------------|
G#|----------------------------------------------------------------------|
E |--15p7(x8)---14p7(x8)----14p10(x8)---12p9(x8)------------------------|
B |----------------------------------------------------------------------|
F#|----------------------------------------------------------------------|
B |----------------------------------------------------------------------|
     T          T           T           T

4:41 Alone
C#|--------------------------------|
G#|--------------------------------|
E |--------------------------------|
B |---------------------10-8-7-8---|
F#|-/12-10--------10-8-------------|
B |--------0-0000------------------|
                            ****
C#|-----------------------------------|
G#|-----------------------------------|
E |------------------9--------9-------|
B |--------------------10-------10----|
F#|-/12-10----------------------------|
B |--------0-0000--8------10----------|
                            ****

C#|--------------------------------|
G#|--------------------------------|
E |--------------------------------|
B |---------------------10-8-7-8---|
F#|-/12-10--------10-8-------------|
B |--------0-0000------------------|
                            ****
4:53 Sleight of Hand
C#|-----------------------------------------------|
G#|-----------------------------------------------|
E |------7-------9---------10------10h12-10\9-10~-|
B |-7777---7--88---8--1010----1010----------------|
F#|-----------------------------------------------|
B |-----------------------------------------------|
    ****      **       * *     * *

C#|-------------------------------PH-------------|
G#|-------------------------------10-PH-PH-------|
E |------7-------9---------10--------10-9-PH-----|
B |---77---7--88---8--1010----10----------10-----|
F#|----------------------------------------------|
B |----------------------------------------------|
      **      **       * *     * 

C#|-----------------------------------------------|
G#|-----------------------------------------------|
E |------7-------9---------10------10h12-10\9-10~-|
B |-7777---7--88---8--1010----1010----------------|
F#|-----------------------------------------------|
B |-----------------------------------------------|
    ****      **       * *     * *

C#|-----------------------------------------------|
G#|-----------------------------------------------|
E |------7-------9--------------------------------|
B |---77---7--88---8------------------------------|
F#|-----------------------------------------------|
B |-----------------------------------------------|
      **      **       


5:04 Mutiny
C#|-------------------------------------------------------------|
G#|-------------------------------------------------------------|
E |-------------------------------------------------------------|
B |-------------------------------------------------------------|
F#|-0--0--0--0--000--000--000-----0--0--0--0--000--000--00-3-5--|
B |-0--0--0--0--000--000--000-----0--0--0--0--000--000--00-3-5--|
    *  *  *     ***  ***  ***     *  *  *     ***  ***  **
C#|-------------------------------------------------------------|
G#|-------------------------------------------------------------|
E |-------------------------------------------------------------|
B |-------------------------------------------------------------|
F#|-0--0--0--0--000--000--000-----0--0--0--0--000--000--00-3-5--|
B |-0--0--0--0--000--000--000-----0--0--0--0--000--000--00-3-5--|
    *  *  *     ***  ***  ***     *  *  *     ***  ***  **






C#|-------------------------------------------------------------|
G#|-------------------------------------------------------------|
E |-------------------------------------------------------------|
B |-------------------------------------------------------------|
F#|-0--0--0--0--000--000--000-----0--0--0--0--000--000----------|
B |-0--0--0--0--000--000--000-----0--0--0--0--000--000----------|
    *  *  *     ***  ***  ***     *  *  *     ***  ***  

5:25 Pandora
C#|-------------------------------------------------------------------|
G#|----------5-----5---------5-----5----------------------------------|
E |------5-----5---------5-----5-------------5---3--------------------|
B |--------7-----7---------7-----7-------3-----3---7-----3---5---3----| x3
F#|----0---------------0---------------3---3-----------3---3---3---7--|
B |--0---------------0---------------3---------------3----------------|

5:43 Dream Run
C#|-----------------------------------------------------------------------|
G#|-----------------------------------------------------------------------|
E |-----------------------------------------------------------------------|
B |-----------------------------------------------------------------------|
F#|-----------------------------------------------------------------------|
B |-0-0-0-0-00000000-0--0--0--00000000-0-0-0-0-00000000-0--0--0--0--0--0--|
    * * * * ******** *  *  *  ******** * * * * ******** *  *  *  *  *  *


C#|-----------------------------------------------------------------------|
G#|-----------------------------------------------------------------------|
E |-----------------------------------------------------------------------|
B |-----------------------------------------------------------------------|
F#|-----------------------------------------------------------------------|
B |-0-0-0-0-00000000-0--0--0--00000000-0-0-0-0-00000000-0--0--0--0--0--0--|
    * * * * ******** *  *  *  ******** * * * * ******** *  *  *  *  *  *


C#|----------------------------------------------------------------|
G#|----------------------------------------------------------------|
E |----------------------------------------------------------------|
B |----------------------------------------------------------------|
F#|---------12-------------------12-------------------12-----------|
B |-12121212--12-0-0-0-0-12121212--12-0-0-0-0-12121212--12-0-0-0-0-|
                 * * * *              * * * *              * * * *  


C#|------------------------------|
G#|------------------------------|
E |------------------------------|
B |------------------------------|
F#|-----12----------12---0-------|
B |-8888--8-10101010--10-0-------|

6:00 The River
C#|-6p5----------5-------------------------------------|
G#|-----6----6-----6---6-----6p5-----------------------|
E |-------7--x-------7----7------7p5--7--7/9\7/9--9----|
B |----------8------------5-----------7----------10----|
F#|----------------------------------------------------|
B |----------------------------------------------------|


C#|-6p5----------5-------------------------------------|
G#|-----6----6-----6---6-----6p5----------10-----------|
E |-------7--x-------7----7------7p5--7----------------|
B |----------8------------5-----------7----------------|
F#|----------------------------------------------------|
B |----------------------------------------------------|
 
6:13 Idols and Anchors
C#|---------------------------------------------------------------------|
G#|----------------------------------------------------------15/17br17--|
E |----17-------15-------14------12-------12h14p12----12-14-------------|
B |-------14-14----14-14----14-14---14-14----------15-------------------|
F#|---------------------------------------------------------------------|
B |---------------------------------------------------------------------|

C#|-1713131713131713-1713131713131713131713----------------|
G#|---------(Seventeens-&-Thirteens)-----------------------|
E |--------------------------------------------------------|
B |--------------- ----------------------------------------|
F#|--------------- ----------------------------------------|
B |--------------------------------------------------------|

C#|-1512121512121512-1310101310101310----------------------|
G#|------(Fifth-teens-&-Twelves and Thirteens-&-Tens)------|
E |--------------------------------------------------------|
B |--------------------------------------------------------|
F#|--------------------------------------------------------|
B |--------------------------------------------------------|

C#|--------13\12---------------------|
G#|--13/15-------13h15---------------|
E |---------------------12~----------|
B |----------------------------------|
F#|----------------------------------|
B |----------------------------------|


C#|----------------------------------------------10-12p10-------|
G#|-------------------------------------------10----------10----|
E |--t14p10-(x8)-t14p9-(x4)-t12p7-(x4)-----10----------------10-|
B |-------------------------------------12----------------------|
F#|-------------------------------------------------------------|
B |-------------------------------------------------------------|


C#|-------12-13p12-----------------|
G#|-----13---------13--------------|
E |---14--------------14-----------|
B |-15-----------------------------|
F#|--------------------------------|
B |--------------------------------|

C#|-17p13-------17p13--------15p13------- 15b-13-15br----13h15------------|
G#|-------17p13-------17p13--------17p13-------------------------17br-17~-|
E |-----------------------------------------------------------------------|
B |-----------------------------------------------------------------------|
F#|-----------------------------------------------------------------------|
B |-----------------------------------------------------------------------|

C#|--20------------20------------17-15-----------------|
G#|-----18-17--------18-17-------------18-17-17h18p17--|
E |-----------19-----------19--------------------------|
B |----------------------------------------------------|
F#|----------------------------------------------------|
B |----------------------------------------------------|

C#|----------------------------|
G#|-13----10----8----5br-5-----|
E |----------------------------|
B |----------------------------|
F#|----------------------------|
B |----------------------------| 

************** Tuning Changes to Drop A# (A#, F, A#, D#, G, C) ********************
6:52 The Blue and the Grey
Guitar 1

C |---------------------------------------------------------------|
G |---------------------------------------------------------------|
D#|-------------------------------------------------12p10---------|
A#|-14--15-15-15-15-14-14-------10--12-12/14----12-------14-12----|
F |-12---------------------15---8---------------10----------------|
A#|-12--------------------------8---------------10----------------|

C |---------------------------------------------------------------|
G |---------------------------------------------------------------|
D#|---------------------------------------------------------------|
A#|-15--15-15-15-15-14-14-------10--12-12/14----12----------------|
F |-12---------------------15---8---------------10----------------|
A#|-12--------------------------8---------------10----------------|

x4

Guitar 2

C |---------------------------------------------------------------|
G |---------------------------------------------------------------|
D#|---------------------------------------------------------------|
A#|---------------------------------------------------------------|
F |--0-0---0~----0-0---0-0----0-0----0~---0-0---------------------|
A#|--0-0---0~----0-0---0-0----0-0----0~---0-0---------------------|
     * *   *     * *   * *    * *         * *

7:39 Deliver Me
C |-----------------------------------------|
G |-----------------------------------------|
D#|-----------------------------------------|
A#|-----------------------------------------|
F |-000-000-000-000-111-111-333-333---------|
A#|-000-000-000-000-000-000-000-000---------|
    *** *** *** *** *** *** *** *** 

x4
 
7:54 Old Ghost/New Regrets
C |--------------|
G |--------------|
D#|--------------|
A#|--------------|
F |---8--5--10---|
A#|---8--5--10---|
                           







C |------------------------------------------|
G |------------------------------------------|
D#|------------------------------------------|  x3
A#|------------------------------------------|
F |-0000000---0--00-00--000000--00-0-00-00---|
A#|-0000000---0--00-00--000000--00-0-00-00---|
    *******   *  ** **  ******  ** * ** **

C |----------------------------------|
G |----------------------------------|
D#|----------------------------------|
A#|----------------------------------|
F |-0000000---0--00-00--8--5--10--7--|
A#|-0000000---0--00-00--8--5--10--7--|
    *******   *  ** **  


slower
C |------------------------------------------------|
G |------------------------------------------------|
D#|------------------------------------------------|
A#|------------------------------------------------|
F |-0-0-0-0-0---0--00-00---0-0-0-0-0--00-0-00-00---|
A#|-0-0-0-0-0---0--00-00---0-0-0-0-0--00-0-00-00---|
    * * * * *   *  ** **   * * * * *  ** * ** **


C |------------------------------------------------------------|
G |------------------------------------------------------------|
D#|------------------------------------------------------------|
A#|------------------------------------------------------------|
F |-0-0-0-0-0---0--00-00-------------------------------------0-|
A#|-0-0-0-0-0---0--00-00--8~--5~--10~--7~--12-12-12-12-12-12-0-|
    * * * * *   *  ** ** 

8:27 Dark Days
C |------------------------------------------------------------------------------|
G |------------------------------------------------------------------------------|
D#|------------------------------------------------------------------------------|
A#|-----7-8-----8-10------10-12-12---14-------7-8-----8-10-----10-12-12----14----|
F |-------------------------------12---15------------------------------12-----15-|
A#|-0-7-----0-8------0-10-----------------0-7-----0-8------0-10------------------|
    * * *   * * *    *  *  *              * * *   * * *    *  * * 

C |------------------------------------------------------------------------------|
G |------------------------------------------------------------------------------|
D#|------------------------------------------------------------------------------|
A#|-----7-8-----8-10------10-12-12---14-------7-8-----8-10-----10-12-12----14----|
F |-------------------------------12---15------------------------------12-----15-|
A#|-0-7-----0-8------0-10-----------------0-7-----0-8------0-10------------------|
    * * *   * * *    *  *  *              * * *   * * *    *  * * 

C |------------------------------------------------------------------------------|
G |------------------------------------------------------------------------------|
D#|------------------------------------------------------------------------------|
A#|-----7-8-----8-10------10-12-12---14-------7-8-----8-10-----10-12-------------|
F |-------------------------------12---15----------------------------------------|
A#|-0-7-----0-8------0-10-----------------0-7-----0-8------0-10------------------|



8:54 Deadweight

C |------------------------------------------------------------------------|
G |------------------------------------------------------------------------|
D#|------------------------------------------------------------------------|
A#|------------------------------------------------------------------------|
F |t12p5t12p5t12p5t12p5t12p5-----------------------------------------------|
A#|------------------------t12p5t12p5t12p5---------------------------------|

C |------------------------------------------------------------------------|
G |------------------------------------------------------------------------|
D#|------------------------------------------------------------------------|
A#|------------------------------------------------------------------------|
F |t15p8t15p8t15p8t15p8t15p8-----------------------------------------------|
A#|-------------------------t15p8t15p8t15p8--------------------------------|

x4
Guitar 2
C |----------------------------------|
G |----------------------------------|
D#|----------------------------------|
A#|----------------------------------|
F |-0~-------------------------------|
A#|-0~-------------------------------|


9:10 Sleepwalker
C |-------------------------------------------------------|
G |-------------------------------------------------------|
D#|-------------------------------------------------------|
A#|--7-5-3---7--5---3---7-8-8-5-7-7-3-0-------------------|
F |-------------------------------------------------------|
A#|-------------------------------------------------------|
 
C |-------------------------------------------------------|
G |-------------------------------------------------------|
D#|-------------------------------------------------------|
A#|-----7--5---3---7-8-7-5-7-5-3-0------------------------|
F |-------------------------------------------------------|
A#|-------------------------------------------------------|


C |----17-17----15----15-18----17----13-15-17-15~-------------|
G |-15-------15----15-------15----15--------------------------|
D#|-----------------------------------------------------------|
A#|-----------------------------------------------------------|
F |-----------------------------------------------------------|
A#|-----------------------------------------------------------|

C |-13p12h13p12-----13p12h12p12-------------------------------------|
G |-------------13~-------------------------------------------------|
D#|-----------------------------14~----14-12-14-12-(10)12-----------|
A#|-----------------------------------------------------------------|
F |-----------------------------------------------------------------|
A#|-----------------------------------------------------------------|





C |----------------------------------------|
G |---------------------------8br----------|
D#|-10-9-10\7------7-5-7-5-7---------------|
A#|----------------------------------------|
F |----------------------------------------|
A#|----------------------------------------|

C |-------------------------12h13h15----17b-17p15h17-------|
G |----------------10h11h13--------------------------------|
D#|--------9h10h12-----------------------------------------|
A#|-7h8h10-------------------------------------------------|
F |--------------------------------------------------------|
A#|--------------------------------------------------------|


C |-17p13----18p13----17p13----13b-17p13----17p13----17p13----17p13----|
G |-------15-------15-------15-----------15-------15-------15-------15-|
D#|--------------------------------------------------------------------|
A#|--------------------------------------------------------------------|
F |--------------------------------------------------------------------|
A#|--------------------------------------------------------------------|

C |--17----17---------17----17-------------|
G |-----15----15---------15----15----------|
D#|--------------14~---------------14~-----|
A#|----------------------------------------|
F |----------------------------------------|
A#|----------------------------------------|

C |-15h17p15-13h15p13-12h13p12-10h12p10p-8/12br-----------|
G |-------------------------------------------------------|
D#|-------------------------------------------------------|
A#|-------------------------------------------------------|
F |-------------------------------------------------------|
A#|-------------------------------------------------------|


END
Добавлено: 20.11.2015
Другие материалы по этой песне:
  • Аккорды и текст

Страница создана 20.11.2015
http://primanota.ru/parkway-drive/10-years-of-parkway-drive-album-chords.htm
Привет, Гость.
Предлагаем пройти революционный курс по гитаре.
Подарок от PrimaNota.Ru, забирай!