PrimaNota.ru - самый крупный в мире бесплатный архив песенных текстов, аккордов, табулатур и нот


Park - One Day In April - таба, видео

Регистрация Запомнить меня
Войти через:  Facebook Google Twitter Vk Yandex Mail.ru

Park - One Day In April - таба, видео

Печатать
Просмотров: 95
Transcribed by Sascha Heinz

Park – One Day in April

Guitar tuning: E A D G B E

8x clean
2x verzerrt

|-------------------------------------------------------------|
|-------------------------------------------------------------|
|--9-9-9-9-9-9-9-9--9-9-9-9-9-9-9-9-—9-9-9-9-9-9-9-9----------|
|--9-9-9-9-9-9-9-9—-9-9-9-9-9-9-9-9-—9-9-9-9-9-9-9-9----------|
|--7-7-7-7-7-7-7-7—-7-7-7-7-7-7-7-7--x-x-x-x-x-x-x-x----------|
|--0-0-0-0-0-0-0-0--9-9-9-9-9-9-9-9--7-7-7-7-7-7-7-7----------|

|---------------------------------|
|---------------------------------|
|-9-9-9-9-9-9-9-9-----------------|
|-9-9-9-9-9-9-9-9-----------------|
|-x-x-x-x-x-x-x-x-----------------|
|-7-7-7-7-7-7-7-7-----------------|

Bridge: 2x
|-------------------------------------------------------------|
|-------------------------------------------------------------|
|-------------------------------------------------------------|
|-14-14-14-14-14-14-16-16-14-14-14-14-14-14-16-16-14-14-14----|
|-xx-xx-xx-xx-xx-xx-xx-xx-xx-xx-xx-xx-xx-xx-xx-xx-xx-xx-xx----|
|-12-12-12-12-12-12—14-14-12-12-12-12-12-12-14-14-12-12-12----|

|-------------------------------------------|
|-------------------------------------------|
|-------------------------------------------|
|-13-13-13-9-9-9-9-9-9-9-9------------------|
|-xx-xx-xx-9-9-9-9-9-9-9-9------------------|
|-11-11-11-7-7-7-7-7-7-7-7------------------|


Outro: 2x

|------------------------------------7-7-7-7-7-7-7-7-7-7-7-7-7-7-|
|------------------------------------7-7-7-7-7-7-7-7-7-7-7-7-7-7-|
|-9-9-9-9-9-9-9-14-14-14-14-14-14-14-8-8-8-8-8-8-8-8-8-8-8-8-8-8-|
|-9-9-9-9-9-9-9-14-14-14-14-14-14-14-9-9-9-9-9-9-9-9-9-9-9-9-9-9-|
|-7-7-7-7-7-7-7-12-12-12-12-12-12-12-9-9-9-9-9-9-9-9-9-9-9-9-9-9-|
|-7-7-7-7-7-7-7-12-12-12-12-12-12-12-7-7-7-7-7-7-7-7-7-7-7-7-7-7-|


Outro: 1x
|-09-09-09-09-09-09-09-09-7-7-7-7-7-7-7-7-9-9-9-9-9-9-9-9-|
|-09-09-09-09-09-09-09-09-7-7-7-7-7-7-7-7-9-9-9-9-9-9-9-9-|
|-09-09-09-09-09-09-09-09-6-6-6-6-6-6-6-6-8-8-8-8-8-8-8-8-|
|-11-11-11-11-11-11-11-11-7-7-7-7-7-7-7-7-9-9-9-9-9-9-9-9-|
|-11-11-11-11-11-11-11-11-7-7-7-7-7-7-7-7-9-9-9-9-9-9-9-9-|
|-09-09-09-09-09-09-09-09-5-5-5-5-5-5-5-5-7-7-7-7-7-7-7-7-|


copyright©
Добавлено: 10.03.2012
Другие материалы по этой песне:
  • Аккорды и текст

Страница создана 10.03.2012
http://primanota.ru/park/one-day-in-april-chords.htm
Привет, Гость.
Предлагаем пройти революционный курс по гитаре.
Подарок от PrimaNota.Ru, забирай!