PrimaNota.ru - самый крупный в мире бесплатный архив песенных текстов, аккордов, табулатур и нот


Park Shin Hye - Pitch Black - бас-таба, видео

Регистрация Запомнить меня
Войти через:  Facebook Google Twitter Vk Yandex Mail.ru

Park Shin Hye - Pitch Black - бас-таба, видео

Печатать
Просмотров: 105
-------------------------------------------------------------------------------
                             Pitch Black - Park Shin Hye
-------------------------------------------------------------------------------
Tabbed by: alexd97
E-mail: 

Tuning: EADG

0:32
G|--------------------------------------------------------|
D|------10-9~-----7~--------10--------------------12------|
A|----9--------7------7-10~----10-8~---7~-------12----10~-|
E|-/8~-----------------------------------8-10~------------|

0:59
G|---------------------------------------------------------------------------|
D|-----------------------------------------------------5----------------7----|
A|------------------------------------2h3-5~--5-5----5----------------7---7\-|
E|-12\-1~-1-1--1~-1-1--0~-0-0--0~-0-0-------------3~------/8~-8-8-\5~--------|

1:23
G|-------------------------------------------------------------|
D|-------------------------------------------------5~--5--5-\--|
A|----------------------7~-7-7----------5~-5-5-7-8-------------|
E|-1~-1-1--1~-1-1--8-10--------3-5~-5-5------------------------|

1:42
G|-----------------------|
D|----------------12-10~-|
A|----/8~------/10-------|
E|-1~-------8~-----------| 

1:54
G|-----------------------------------------------------------------|
D|--------/5-10-9------7~--7-5~-5-4-2---3~-2-3-5-------5-------5~--|
A|-12\-3~-----------7/8---7-----------------------3~-1/-5~-5-7-----|
E|-----------------------------------------------------------------|

2:22
G|----------------------------------------------------------------------------|
D|--------------3~-3-3-\2~-2-2--2~-2-2--5--------------5----------------7-----|
A|------------/3--------------------------5~-5-5----5----/3~-3-3\----/7---5/7-|
E|-12\-1~-1-1------------------------------------3~---------------5~----------|

2:47
G|-------------------------------------------------------------|
D|-3~-3-3--3~-3-3------------/5h9-7~---------------5~--5--5----|
A|----------------5-6-7~-7-7------------5~-5-5-7-8---------/8~-|
E|-------------------------------------------------------------|


| /  slide up
| \  slide down
| h  hammer-on
| p  pull-off
| ~  vibrato
| +  harmonic
| x  Mute note
===============================================================================
Добавлено: 30.05.2016
Другие материалы по этой песне:
  • Аккорды и текст

Страница создана 30.05.2016
http://primanota.ru/park-shin-hye/pitch-black-chords.htm
Привет, Гость.
Предлагаем пройти революционный курс по гитаре.
Подарок от PrimaNota.Ru, забирай!