PrimaNota.ru - самый крупный в мире бесплатный архив песенных текстов, аккордов, табулатур и нот


Paranmaum - Son No Baraado - таба, видео

Регистрация Запомнить меня
Войти через:  Facebook Google Twitter Vk Yandex Mail.ru

Paranmaum - Son No Baraado - таба, видео

Печатать
Просмотров: 110
son no baraado


paranmaun


TRANSCRIBED BY RUDY GUZMAN


guzman_84@hotmail.com



e:--------0--2-----------------------3----------0---------5----3------|
B:-3--1---------3-1-0----------------3------------1-----------------3-|
G:--------------0-----2-0---0-2--------0------0-----------------------|
D:-----------0--0---------4----------------------------4--------------|
A:-2--0---------2-------------------------0----------2-------2---2--2-|
E:--------------3-----------------3-----------------------------------|

e:------0-2------3--------------|
B:-1--1--------1----------3-1-0-|
G:-----------2------0-----0-0---|
D:--------0---------0--0--------|
A:-0--0-------------2-----------|
E:------------------3-----------|


   hitomi ga itai yo...                                            
e:------3----------0----------5----3----------------0--------3-2-0-2---|
B:------3----------1-------------------3----------1---1------3-3-3-3-3-|
G:--------0------0---0-----------------4--------2-------2----2-2-2-2---|
D:---0---------------------4-------------4----2-----------2--0---------|
A:------------0----------2------2----2------0--------------------------|
E:-3-------------------------------------------------------------------|

e:------3----------0----------5-------------0----2-------2-------3---2---|
B:------3----------1-----------------3------1------3-------------3---3-3-|
G:--------0------0---0------------1--2------2--------2---------------2---|
D:---0---------------------4------2--0----2---2--------0-------0---0-----|
A:------------0----------2------2-2-----0--------------------------------|
E:-3------------------------------0--------------------------3-----------|


e:--------3-3------0----------5----3----------------0--------3-2-0-2---|
B:------3-3-3------1-------------------3----------1---1------3-3-3-3-3-|
G:------0-0-0----0---0-----------------4--------2-------2----2-2-2-2---|
D:---0---------------------4-------------4----2-----------2--0---------|
A:------------0----------2------2----2------0--------------------------|
E:-3-------------------------------------------------------------------|

e:------3----------0----------5-------------0----2-------2-----------3-|
B:------3----------1-----------------3------1------3---------------3---|
G:--------0------0---0------------1--2------2--------2-----------0-----|
D:---0---------------------4------2--0----2---2--------0-------0-------|
A:------------0----------2------2-2-----0------------------------------|
E:-3------------------------------0--------------------------3---------|


  haru kana...
e:-----------------------------------------------------------3-----3-2---|
B:-----3--------5---------3---------5---------3---------6--------3-----3-|
G:-----4--------5---------4---------5---------4---------7------2---------|
D:---4---4----5---5-----4---4-----5---5-----4---4-----7---7--0-----------|
A:-2--------3---------2---------3---------2---------5--------------------|
E:-----------------------------------------------------------------------|


e:----------------------------------------------------0---3-2-0-----|
B:-----3--------5---------3---------5---------3-----6-----3-----3---|
G:-----4--------5---------4---------5---------4-----7-----2-------2-|
D:---4---4----5---5-----4---4-----5---5-----4---4---7-----0---------|
A:-2--------3---------2---------3---------2---------5---------------|
E:------------------------------------------------------------------|

  anata to te a te te...
e:------3----------0----------5----3----------------0--------3-2-0-2---|
B:------3----------1-------------------3----------1---1------3-3-3-3-3-|
G:--------0------0---0-----------------4--------2-------2----2-2-2-2---|
D:---0---------------------4-------------4----2-----------2--0---------|
A:------------0----------2------2----2------0--------------------------|
E:-3-------------------------------------------------------------------|

e:------3----------0----------5-------------0----2-------2-------3--------1-|
B:------3----------1-----------------3------1------3-------------3--------3-|
G:--------0------0---0------------1--2------2--------2-------------0----2---|
D:---0---------------------4------2--0----2---2--------0-------0------0-----|
A:------------0----------2------2-2-----0-----------------------------------|
E:-3------------------------------0--------------------------3--------------|

e:------2-------------------|
B:-0----3----------3-1-0----|
G:-1----2--------0--------2-|
D:-2----0------0------------|
A:-2----0-------------------|
E:-0---------3--------------|

e:-------3-3----0-----------5-----3--------------3--3-------3---|
B:-------3-3----1--------------------3--1--0--------3-------3-3-|
G:-----0----------0---------------------------2-----0-----0-----|
D:---0-------------------4--------------------0-----0---0-------|
A:-----------0---------2-------2-----2--0-----------2-----------|
E:-3------------------------------------------------3-----------|




http://www.facebook.com/group.php?gid=7674083295&v=wall                           facebook



hillo son mex

11/08/11
Добавлено: 01.07.2012
Вам также может быть интересно:
Другие материалы по этой песне:
  • Аккорды и текст

Страница создана 01.07.2012
http://primanota.ru/paranmaum/son-no-baraado-chords.htm
Привет, Гость.
Предлагаем пройти революционный курс по гитаре.
Подарок от PrimaNota.Ru, забирай!