PrimaNota.ru - самый крупный в мире бесплатный архив песенных текстов, аккордов, табулатур и нот


Paramore - Misguided Ghost - таба, видео

Регистрация Запомнить меня
Войти через:  Facebook Google Twitter Vk Yandex Mail.ru

Paramore - Misguided Ghost - таба, видео

Печатать
Просмотров: 189
Tuning - STANDARD

Intro-
GtrI
|-----0-------3---|-----0-------3---|--------------------------------|
|-0h1---1-1p0---0-|-0h1---1-1p0---0-|-----0---0h1-0-----0----0h1-3-0-|
|-0-------0-----0-|-0-------0-----0-|-----0-0-0-----0---0-0--0-----0-|
|-----------------|-----------------|-0h2-------------2--------------|2x
|-----------------|-----------------|--------------------------------|
|-----------------|-----------------|--------------------------------|

GtrII
(-------------2x------------)
|-------------|-------------|-----------------------|--------------------------|
|-------------|-------------|-----------------------|-------0------------------|
|-------2-----|-------2-----|-------0---------0-----|---------0---------0------|
|-0h2-2---2p0-|-0h2-2---2p0-|-0h2-2--2p0-0h2-2--2p0-|--0h2-2----2-0h2-2--2p0---|
|-------------|-------------|-----------------------|--------------------------|
|-------------|-------------|-----------------------|--------------------------|
Verse-
GtrI
|-----0-------3---|-----0-------3---|--------------------------------|
|-0h1---1-1p0---0-|-0h1---1-1p0---0-|-----0---0h1-0-----0----0h1-3-0-|
|-0-------0-----0-|-0-------0-----0-|-----0-0-0-----0---0-0--0-----0-|
|-----------------|-----------------|-0h2-------------2--------------|2x
|-----------------|-----------------|--------------------------------|
|-----------------|-----------------|--------------------------------|

Refrain-
GtrI
|-12-----12---12-----12---|-10----10---10----10---|-8-----8---8----8---|-10----10---7----7---|
|---13-----13---13-----13-|---12----12---12----12-|--10----10--10---10-|---12----12---8----9-|
|-----12----------12------|-----12---------12-----|----10--------10----|-----12---------9----|
|-------------------------|-----------------------|--------------------|---------------------|
|-------------------------|-----------------------|--------------------|---------------------|
|-------------------------|-----------------------|--------------------|---------------------|
GtrII
|-------------------------|-----------------------|--------------------|------3--------------|
|------1----------1-------|-----------------------|-----1---------1----|-------0----0~-------|
|--------2----------2-----|-----0---------0-------|-------2---------2--|----0----0--0~-------|
|---2------2----2-----2---|-------2---------2-----|---------3--------3-|---------------------|
|-0-----------0-----------|---2-----2---2-----2---|---3---------3------|---------------------|
|-------------------------|-0---------0-----------|-1---------1--------|-3-------------------|

GtrI
|-12-----12---12-----12---|-10----10---10----10---|-8-----8---8----8---|-10----10---7~-------|
|---13-----13---13-----13-|---12----12---12----12-|--10----10--10---10-|---12----12-8~-------|
|-----12----------12------|-----12---------12-----|----10--------10----|-----12-----9~-------|
|-------------------------|-----------------------|--------------------|---------------------|
|-------------------------|-----------------------|--------------------|---------------------|
|-------------------------|-----------------------|--------------------|---------------------|
GtrII
|------0----------0-------|-----0---------0-------|--------------------|------3--------------|
|--------1----------1-----|-------3---------3-----|-----1---------1----|-------0----0~-------|
|----------2----------2---|---------0---------0---|-------2---------2--|------------0~-------|
|---2-----------2---------|-----------------------|---------3--------3-|----0----------------|
|-0-----------0-----------|---2---------2---------|---3---------3------|---------------------|
|-------------------------|-0---------0-----------|-1---------1--------|-3-------------------|

Chorus-
GtrI
|-----------------------------------------------------------------|
|-5-3-0-1~---------------------5-3-0-1~---------------------------|
|-5-4-0-0~---------------------5-4-0-2~---------------------------|
|-7-5-2-2~---------------------7-5-2-3~---------------------------|
|-------3~--------------------------------------------------------|
|-----------------------------------------------------------------|

GtrI
|-----------0-------0-------0--------------------------------------------|
|-5-3-0-1-1--1--1-1---1--1-1-1---5-3-0-----------------------------------|
|-5-4-0-0-----0-0------0-0----0--5-4-0------2-----------2-----------2----|
|-7-5-2-2------------------------7-5-2-0h2-2--2p0--0h2-2--2p0-0h2-2--2p0-|
|-7-5-2-3------------------------7-5-2-----------------------------------|
|-5-3-0--------------------------5-3-0-----------------------------------|

GtrI
|-----------------------------------------------------------------|
|-5-3-0-1~---------------------5-3-0------------------------------|
|-5-4-0-0~---------------------5-4-0------------------------------|
|-7-5-2-2~---------------------7-5-2------------------------------|
|-------3~--------------------------------------------------------|
|-----------------------------------------------------------------|
GtrII
|-----------0-------0-------0------------|
|-5-3-0-1-1--1--1-1---1--1-1-1---5-3-0---|
|-5-4-0-0-----0-0------0-0----0--5-4-0---|
|-7-5-2-2------------------------7-5-2---|
|-7-5-2-3------------------------7-5-2---|
|-5-3-0--------------------------5-3-0---|

Do Verse-Refrain


DO Chorus-
GtrI
|-----------------------------------------------------------------|
|-5-3-0-1~---------------------5-3-0-1~---------------------------|
|-5-4-0-0~---------------------5-4-0-2~---------------------------|
|-7-5-2-2~---------------------7-5-2-3~---------------------------|3x
|-------3~--------------------------------------------------------|
|-----------------------------------------------------------------|

GtrI
|-----------0-------0-------0--------------------------------------------|
|-5-3-0-1-1--1--1-1---1--1-1-1---5-3-0-----------------------------------|
|-5-4-0-0-----0-0------0-0----0--5-4-0------2-----------2-----------2----|
|-7-5-2-2------------------------7-5-2-0h2-2--2p0--0h2-2--2p0-0h2-2--2p0-|3x
|-7-5-2-3------------------------7-5-2-----------------------------------|
|-5-3-0--------------------------5-3-0-----------------------------------|

then

GtrI
|------------------------------------1----------------------------|
|-5-3-0-1~---------------------5-3-5-1-1--------------------------|
|-5-4-0-0~---------------------5-4-5-2-0--------------------------|
|-7-5-2-2~---------------------7-5-7-3-2--------------------------|
|-------3~-----------------------------3--------------------------|
|-----------------------------------------------------------------|

GtrI
|-----------0-------0-------0----------1--------------------------|
|-5-3-0-1-1--1--1-1---1--1-1-1---5-3-5-1-1------------------------|
|-5-4-0-0-----0-0------0-0----0--5-4-5-2-0------------------------|
|-7-5-2-2------------------------7-5-7-3-2------------------------|
|-7-5-2-3------------------------7-5-7---3------------------------|
|-5-3-0--------------------------5-3-5----------------------------|

Do Verse-

end
GtrI
|--3~--------|
|--5~--------|
|--5~--------|
|------------|
|------------|
|------------|

GtrII
|------------|
|--1~--------|
|--2~--------|
|--2~--------|
|--0~--------|
|------------|
Добавлено: 24.11.2013
Другие материалы по этой песне:
  • Аккорды и текст

Страница создана 24.11.2013
http://primanota.ru/paramore/misguided-ghost-chords.htm
Привет, Гость.
Предлагаем пройти революционный курс по гитаре.
Подарок от PrimaNota.Ru, забирай!