PrimaNota.ru - самый крупный в мире бесплатный архив песенных текстов, аккордов, табулатур и нот


Paramore - Misery Business Live - таба, видео

Регистрация Запомнить меня
Войти через:  Facebook Google Twitter Vk Yandex Mail.ru

Paramore - Misery Business Live - таба, видео

Печатать
Просмотров: 321
-------------------------------------------------------------------------------
                             Misery Business - Paramore
-------------------------------------------------------------------------------
Tabbed by: Benji Ho
Email: Benji_Ho@hotmail.co.uk

Tuning: Drop C#

Solo from The Final Riot CD/DVD =]

d#|-------------------------|-----------------------------|
A#|-------------------------|-----------------------------|
F#|-------------------------|-----------------------------|
C#|-------------------------|-----------------------------|
G#|--7/9--9--9--9--9--9--9--|--7/9--9--9--9--9--9--9------|
C#|-------------------------|-----------------------------|

D#|-------------------------|-----------------------------|
A#|-------------------------|-----------------------------|
F#|-------------------------|-----------------------------|
C#|-------------------------|-----------------------------|
G#|--7/9--9--9--9--9--9--9--|--12-12-12-12-11-11-11-11----|
C#|-------------------------|-----------------------------|

D#|-------------------------|-----------------------------|
A#|-------------------------|-----------------------------|
F#|-------------------------|-----------------------------|
C#|--------7--9--7----------|--------7--9--7--------------|
G#|--7--9-----------9--7----|--7--9-----------------------|
C#|-------------------------|-----------------------------|

D#|-------------------------|-----------------------------|
A#|-------------------------|-----------------------------|
F#|-------------------------|-----------------------------|
C#|--------7--9--7----------|--11-11-11-11-11-11-11-11----|
G#|--7--9-----------9--7----|-----------------------------|
C#|-------------------------|-----------------------------|

D#|-------------------------|-----------------------------|
A#|-------------------------|-----------------------------|
F#|-------------------------|-----------------------------|
C#|-14-14-14-14-14-14-14-14-|-12-12-12-12-12-12-12-12-----|
G#|-------------------------|-----------------------------|
C#|-------------------------|-----------------------------|

D#|-------------------------|-----------------------------|
A#|-------------------------|-----------------------------|
F#|-------------------------|-----------------------------|
C#|-11-11-11-11-11-11-11-11-|-9--9--9--9--9--9--9--9------|
G#|-------------------------|-----------------------------|
C#|-------------------------|-----------------------------|

D#|-------------------------|-----------------------------|
A#|-------------------------|-----------------------------|
F#|-------------------------|-----------------------------|
C#|-14-14-14-14-14-14-14-14-|-16-16-16-16-16-16-16-16-----|
G#|-------------------------|-----------------------------|
C#|-------------------------|-----------------------------|

D#|-------------------------|-----------------------------|
A#|-------------------------|-----------------------------|
F#|-------------16-16-18-18-|-----------------------------|
C#|-19-19-19-19-------------|-18--18--18--18--18~---------|
G#|-------------------------|-----------------------------|
C#|-------------------------|-----------------------------|




| /  slide up
| \  slide down
| h  hammer-on
| p  pull-off
| ~  vibrato
| +  harmonic
| x  Mute note
===============================================================================
Добавлено: 05.04.2012
Другие материалы по этой песне:

Страница создана 13.03.2012
http://primanota.ru/paramore/misery-business-live-chords.htm
Привет, Гость.
Предлагаем пройти революционный курс по гитаре.
Подарок от PrimaNota.Ru, забирай!