PrimaNota.ru - самый крупный в мире бесплатный архив песенных текстов, аккордов, табулатур и нот


Paramore - In The Mourning - аккорды и текст, таба, видео

Регистрация Запомнить меня
Войти через:  Facebook Google Twitter Vk Yandex Mail.ru

Paramore - In The Mourning - аккорды и текст, таба, видео

Печатать
Просмотров: 873
In The Mourning
Paramore
I just recently learned this song (finger picking wise and strumming wise) & I thought
of putting up the finger picking tabs but I figured some beginners might have trouble
with that so I decided to put up the chords in case you would like to strum to the song 
instead. So here they are! Enjoy :)


Standard Tuning
Capo on 3rd fret

Intro:
You escape like a runnaway train...
|-0--0--0----------|
|-1--0--0----------|
|-0--0--0----------|
|-2--0--2----------|
|-3--2--0----------|
|----0--0----------|

All your burdens....
|-0--0--3--0--------|
|-1--0--3--0--------|
|-0--0--0--0--------|
|-2--0--0--2--------|
|-3--2--2--2--------|
|----0--3--0--------|

Chorus:

In the mourning I'll rise
|-0--0--2----------|
|-1--0--3----------|
|-0--0--2----------|
|-2--0--0----------|
|-3--2--0----------|
|----0-------------|

In the mourning I'll let you die
|-0--0--2----------|
|-1--0--3----------|
|-0--0--2----------|
|-2--0--0----------|
|-3--2--0----------|
|----0-------------|

In the mourning
|-0--3--0----------|
|-0--3--0----------|
|-0--0--0----------|
|-2--0--2----------|
|-0--3--2----------|
|-0--3--0----------|

All my worry
|-0--0--3----------|
|-1--0--3----------|
|-0--0--2----------|
|-2--0--0----------|
|-3--2--2----------|
|----0--3----------|

Second Verse:

Now there's nothing but time is wasted...
|-0--0--0----------|
|-1--0--0----------|
|-0--0--0----------|
|-2--0--2----------|
|-3--2--0----------|
|----0--0----------|

Can you hear the echoes fading?
|-0--0--3--0--------|
|-1--0--3--0--------|
|-0--0--0--0--------|
|-2--0--0--2--------|
|-3--2--2--2--------|
|----0--3--0--------|


Chorus:

In the mourning I'll rise
|-0--0--2----------|
|-1--0--3----------|
|-0--0--2----------|
|-2--0--0----------|
|-3--2--0----------|
|----0-------------|

In the mourning I'll let you die
|-0--0--2----------|
|-1--0--3----------|
|-0--0--2----------|
|-2--0--0----------|
|-3--2--0----------|
|----0-------------|

In the mourning
|-0--3--0----------|
|-0--3--0----------|
|-0--0--0----------|
|-2--0--2----------|
|-0--3--2----------|
|-0--3--0----------|

All my sorry's
|-0--0--3----------|
|-1--0--3----------|
|-0--0--2----------|
|-2--0--0----------|
|-3--2--2----------|
|----0--3----------|
Добавлено: 18.06.2012
Другие материалы по этой песне:

Страница создана 21.02.2012
http://primanota.ru/paramore/in-the-mourning-chords.htm
Привет, Гость.
Предлагаем пройти революционный курс по гитаре.
Подарок от PrimaNota.Ru, забирай!