PrimaNota.ru - самый крупный в мире бесплатный архив песенных текстов, аккордов, табулатур и нот


Paramore - Hallelujah - аккорды и текст, таба, бас-таба, видео

Регистрация Запомнить меня
Войти через:  Facebook Google Twitter Vk Yandex Mail.ru

Paramore - Hallelujah - аккорды и текст, таба, бас-таба, видео

Печатать
Просмотров: 921
Авторы музыки: Leonard Cohen
Авторы текста: Leonard Cohen
Hallelujah
Paramore
Okay, so I worked a lot off of other people's tabs. But instead of having two guitar 
Since most of us are only one person, I combined it in a way that I think sounds just fine.
If you have any questions, you can email me at nfhs_gurl_atl@yahoo.com


Intro:

e|------------------------------------------|
b|------------------------------------------|
g|------------------------------------------|   2x
d|------------------------------------------|
a|--------------------------11-11-11-11-11--|
D|--7-7-7-9-9-9-11-11-11-14-14-14-14-14-14--|

e|------------------------------------------|
b|------------------------------------------|
g|-11-----------8---------4-----------------|
d|--9-(16x)-----6-(8x)----2-(8x)------------|
a|--9-----------6---------2-----------------|
D|--9-----------6---------2-----------------|

Verse: One.

e|------------------------------------------|
b|------------------------------------------|
g|-11-11-11s------8-8-8s------10-10-10s-----|  4x
d|--9--9--9s------6-6-6s-------8--8--8s-----|
a|--9--9--9s------6-6-6s-------8--8--8s-----|
D|--9--9--9s------6-6-6s-------8--8--8s-----|

Before Chorus

e|------------------------------------------|
b|------------------------------------------|
g|------------------------------------------| 2x
d|------------------------------------------|
a|--------------------------11-11-11-11-11--|
D|--7-7-7-9-9-9-11-11-11-14-14-14-14-14-14--|

Chorus

e|------------------------------------------|
b|------------------------------------------|
g|-11-----------8---------4-----------------|
d|--9-(16x)-----6-(8x)----2-(8x)------------|
a|--9-----------6---------2-----------------|
D|--9-----------6---------2-----------------|

Verse: two

e|------------------------------------------|
b|------------------------------------------|
g|-11-11-11s------8-8-8s------10-10-10s-----|  4x
d|--9--9--9s------6-6-6s-------8--8--8s-----|
a|--9--9--9s------6-6-6s-------8--8--8s-----|
D|--9--9--9s------6-6-6s-------8--8--8s-----|

Before Chorus again

e|------------------------------------------|
b|------------------------------------------|
g|------------------------------------------|   2x
d|------------------------------------------|
a|--------------------------11-11-11-11-11--|
D|--7-7-7-9-9-9-11-11-11-14-14-14-14-14-14--|

Chorus

e|------------------------------------------|
b|------------------------------------------|
g|-11-----------8---------4-----------------|
d|--9-(16x)-----6-(8x)----2-(8x)------------|
a|--9-----------6---------2-----------------|
D|--9-----------6---------2-----------------|

Bridge

e|------------------------------------------|
b|------------------------------------------|
g|--4-4-4--4-4-4--8-8-8--11-11-11-11--------|
d|--2-2-2--2-2-2--6-6-6---9--9--9--9--------|  4x
a|--2-2-2--2-2-2--6-6-6---9--9--9--9--------|
D|--2-2-2--4-4-4--6-6-6---9--9--9--9--------|
    . . .      .  . .        .  .

Before Chorus again

e|------------------------------------------|
b|------------------------------------------|
g|------------------------------------------|   2x
d|------------------------------------------|
a|--------------------------11-11-11-11-11--|
D|--7-7-7-9-9-9-11-11-11-14-14-14-14-14-14--|

Chorus

e|------------------------------------------|
b|------------------------------------------|
g|-11-----------8---------4-----------------|
d|--9-(16x)-----6-(8x)----2-(8x)------------|
a|--9-----------6---------2-----------------|
D|--9-----------6---------2-----------------|

Outro

e|------------------------------------------|
b|------------------------------------------|
g|-11-11--11s-------------------------------|
d|--9--9---9s-------------------------------|
a|--9--9---9s-------------------------------|
D|--9--9---9s-------------------------------|

KEY:

s= Slide, in the outro, just slide up the neck as a fade out.
..= these dot's on the bottom mean to palm mute, or "chuck" as some people say.
Добавлено: 11.04.2012
Другие материалы по этой песне:

Страница создана 22.02.2012
http://primanota.ru/paramore/hallelujah-chords.htm
Привет, Гость.
Предлагаем пройти революционный курс по гитаре.
Подарок от PrimaNota.Ru, забирай!