PrimaNota.ru - самый крупный в мире бесплатный архив песенных текстов, аккордов, табулатур и нот


Paradox - Product Of Imagination - таба, видео

Регистрация Запомнить меня
Войти через:  Facebook Google Twitter Vk Yandex Mail.ru

Paradox - Product Of Imagination - таба, видео

Печатать
Просмотров: 151
|-----0----------0-----------0-----------0-----------0------------0-------|
|------0----------0-----------0-----------0-----------0------------0------|
|-------0----------0-----------0-----------0-----------0------------0-----|
|---5------5---5------5---5-------5---5-------5---5--------5---5-------5--|
|--7------7---7------7---7-------7---7-------7---7--------7---7-------7---|
|-0----------8----------0-----------8-----------0------------8------------|

|------0-----------0-------0---0---0---3---3---3---0---0---0---0---0---0--|
|-------0-----------0-------0---0---0---0---0---0---0---0---0---0---0---0-|
|--------0-----------0-------0---0-------0---0-------0---0-------0---0----|
|---5-------5---5-------5-------------------------------------------------|
|--7-------7---7-------7--------------------------------------------------|
|-0-----------8-----------------------------------------------------------|

|-0---0---0---3---3---3---0---0---0---0---0---0---2---2---2---3---3---2---|
|--0---0---0---0---0---0---0---0---0---0---0---0---0---0---0---0---0---0--|
|---0---0-------0---0-------0---0-------0---0-------0---0-------0---0-----|
|-------------------------------------------------------------------------|
|-------------------------------------------------------------------------|
|-------------------------------------------------------------------------|

|-0---0---0--5---5---5--2---2---2---3---3---2---0---0---0---0---0---0-----|
|--0---0------5---5------0---0---0---0---0---0---0---0---0---0---0---0----|
|---0---0------5---5------0---0-------0---0-------0---0-------0---0-------|
|-------------------------------------------------------------------------|
|-------------------------------------------------------------------------|
|-------------------------------------------------------------------------|

|-0---0---0---3---3---3---0---0---0--0-------0---0---0---3---3---3---7----|
|--0---0---0---0---0---0---0---0---0----------0---0---0---0---0---0---0---|
|---0---0-------0---0-------0---0--------------0---0-------0---0-------0--|
|-------------------------------------------------------------------------|
|-------------------------------------------------------------------------|
|-------------------------------------------------------------------------|

|-7---7---12-------7---7---7---7---7---3---0---0---0--0-----------0-------|
|--0---0------------0---0---0---0---0---0---0---0---0--------------0------|
|---0----------------0---0-------0---0-------0---0------------------0-----|
|---------------------------------------------------------------5------5--|
|--------------------------------------------------------------7------7---|
|-------------------------------------------------------------0-----------|

|------0----------0----------0---------0----------0----------0----------0-|
|-------0----------0----------0---------0----------0----------0----------0|
|--------0----------0----------0---------0----------0----------0----------|
|----5------5---5------5---5------5---5-----5---5------5---5------5---5---|
|---7------7---7------7---7------7---7-----7---7------7---7------7---7----|
|--8----------0----------8----------0---------8----------0----------8-----|

|-------------------------------------------------------------------------|
|-------------------------------------------------------------------------|
|-0-----------------------------------------------------------------------|
|----5--7---7-9-10--5-4---------------------------------------------------|
|---7---7---7-9-10--5-4-2-------------------------------------------------|
|-------5---5-7-8---3-2-0-------------------------------------------------|

http://www.paradox-bangers.de/
Добавлено: 07.05.2012
Другие материалы по этой песне:
  • Аккорды и текст

Страница создана 07.05.2012
http://primanota.ru/paradox/product-of-imagination-chords.htm
Привет, Гость.
Предлагаем пройти революционный курс по гитаре.
Подарок от PrimaNota.Ru, забирай!