PrimaNota.ru - самый крупный в мире бесплатный архив песенных текстов, аккордов, табулатур и нот


Paradise Fears - Get To You - таба, видео

Регистрация Запомнить меня
Войти через:  Facebook Google Twitter Vk Yandex Mail.ru

Paradise Fears - Get To You - таба, видео

Печатать
Просмотров: 97
Уроки эстрадного вокала в Санкт-Петербурге
Song: Get To You (Acoustic)
Band: Paradise Fears
Album: Acoustic EP
e---------------------------------------------------------------|
b---------------------------------------------------------------|
g---------------------------------------------------------------|
d---------------------------------------------------------------|
a---------------------------------------------------------------|
e---------------------------------------------------------------|

Standard Tuning: EADGBE

Intro:

e------------------------------------------|
b------------------------------------------|
g------0------0------0-----0------0--------|
d----0------0------0-----0------0---0------|
a--3------3------3-----3------3------------|
e------------------------------------------|

e---------------------------------------------------------------|
b---------------------------------------------------------------|
g-------0-------0------------0--------0-------------------------| x2
d-----0-------0------0-----0--------0--------0------------------|
a--10------10-----10-----9-------12-------12--------------------|
e---------------------------------------------------------------|


Verse:
"We had so much time...."
e------------------------------------------|
b------------------------------------------|
g------0------0------0-----0------0--------|
d----0------0------0-----0------0---0------|
a--3------3------3-----3------3------------|
e------------------------------------------|

e---------------------------------------------------------------|
b---------------------------------------------------------------|
g-------0-------0------------0--------0-------------------------| x4
d-----0-------0------0-----0--------0--------0------------------|
a--10------10-----10-----9-------12-------12--------------------|
e---------------------------------------------------------------|

e------------------------------------------|
b------------------------------------------|
g------0------0------0-----0------0--------|
d----0------0------0-----0------0---0------|
a--3------3------3-----3------3------------|
e------------------------------------------|

e--------------------------------|
b--------------------------------|
g-------0-------0----------------|
d-----0-------0------0-----------|
a--10------10-----10-----9-------|
e--------------------------------|


Chorus:
"I miss the time when..."
  Cadd9      G       D
e---3--------3-------x----------|
b---3--------3-------3----------|
g---0--------0-------2----------| x2
d---x--------0-------0----------|
a---3--------x-------x----------|
e---x--------3-------x----------|

"What I'd give to...."
  Em    Cadd9     G    D/F#    Em      D    Cadd9     D
e--3------3-------3-----x-------3------x------3-------x---------|
b--3------3-------3-----3-------3------3------3-------3---------|
g--0------0-------0-----2-------0------2------0-------2---------|
d--2------x-------0-----0-------2------0------x-------0---------|
a--2------3-------x-----x-------2------x------3-------x---------|
e--0------x-------3-----2-------0------x------x-------x---------|


Intro
Verse 2
Chorus
Verse 3

Chorus 3
 Cadd9      G       D
e---3--------3-------x----------|
b---3--------3-------3----------|
g---0--------0-------2----------| x2
d---x--------0-------0----------|
a---3--------x-------x----------|
e---x--------3-------x----------|

"What I'd give to...."
  Em    Cadd9     G    D/F#    Em      D    
e--3------3-------3-----x-------3------x-----|
b--3------3-------3-----3-------3------3-----|
g--0------0-------0-----2-------0------2-----|
d--2------x-------0-----0-------2------0-----|
a--2------3-------x-----x-------2------x-----|
e--0------x-------3-----2-------0------x-----|



Bridge/Outro:

e----3---3-----x----3---x---3---x---3---x---3---3---3-----------|
b----3---3-----3----3---3---3---3---3---3---3---3---3-----------|
g----0---0-----2----0---2---0---2---0---2---0---0---0-----------|
d----2---3-----0----2---0---x---0---2---0---2---0---x-----------|
a----0---2-----x----2---x---3---x---2---x---0---2---3-----------|
e----x---x-----x----0---x---x---x---0---x---x---x---x-----------|

Добавлено: 13.06.2013
Другие материалы по этой песне:
  • Аккорды и текст

Страница создана 13.06.2013
http://primanota.ru/paradise-fears/get-to-you-chords.htm
Привет, Гость.
Предлагаем пройти революционный курс по гитаре.
Подарок от PrimaNota.Ru, забирай!