PrimaNota.ru - самый крупный в мире бесплатный архив песенных текстов, аккордов, табулатур и нот


Paradise Fears - Fought For Me - таба, видео

Регистрация Запомнить меня
Войти через:  Facebook Google Twitter Vk Yandex Mail.ru

Paradise Fears - Fought For Me - таба, видео

Печатать
Просмотров: 42
-------------------------------------------------------------------------------
                             Fought for Me - Paradise Fears
-------------------------------------------------------------------------------
Tabbed by: Naskablackbelt



Tuning:Standard 

CAPO 2 for recorded version! Listen to recording for exact rhythm

Easy way to do the song is hold a D chord fingering throughout with your middle, ring, and pinky fingers, 
and make your index finger a movable finger that will cover the A and Low E strings. 

Intro/Chorus/Bridge:

e|---------------------------------------------------------------------------|
B|-----------3---------3-----3-----------------------------------------------|
G|-----2-------2---------------2---------------------------------------------|
D|---0-----0-----0---0-----0-----0-------------------------------------------|
A|-2-----2-------------------------------------------------------------------|
E|-----------------2-----3---------------------------------------------------|

For Intro and parts between chorus and next verse/bridge: 2x
For Chorus: 4x
For Bridge: 8x

Verses: 

* = Percussive stroke, aka slapping the strings and guitar to make a beat without producing a note

e|--------*------------------------------------------------------------------|
B|-------3*-----3-----3------------------------------------------------------|
G|-----2--*-------------2----------------------------------------------------|
D|---0----*---0-----0-----0--------------------------------------------------|
A|-2------*------------------------------------------------------------------|
E|--------*-2-----3----------------------------------------------------------|

For verse: 8x

Song Structure:
Intro
Verse
Chorus
Verse
Chorus
Bridge
Chorus x2
Добавлено: 24.12.2015
Другие материалы по этой песне:
  • Аккорды и текст

Страница создана 24.12.2015
http://primanota.ru/paradise-fears/fought-for-me-chords.htm
Привет, Гость.
Предлагаем пройти революционный курс по гитаре.
Подарок от PrimaNota.Ru, забирай!