PrimaNota.ru - самый крупный в мире бесплатный архив песенных текстов, аккордов, табулатур и нот


Paradies P D - Toccata in a - таба, видео

Регистрация Запомнить меня
Войти через:  Facebook Google Twitter Vk Yandex Mail.ru

Paradies P D - Toccata in a - таба, видео

Печатать
Просмотров: 108
From weed@venus.co.uk Fri May 16 08:38:29 1997
Date: Thu, 8 May 1997 08:12:26 +0100 (BST)
From: weed 
To: guitar@olga.net
Cc: acoustic@olga.net
Subject: TAB: Toccata in A by Paradies


TOCCATA IN A (Piano Solo): P D Paradies (1710-1792)
TRANSCRIPTION FOR GUITAR: Weed 


Notes: This is my first attempt at tablature, so feedback
is welcome. The timing is even, with no triplets etc.
Harmony is 2-part, starting with the upper in semiquavers,
and the lower in quavers shown by an "equals" sign (=)
immediately following the note - this is also used to
indicate occasional crotchets and dotted crotchets at the
end of passages.


2/4 time   Allegro vivace

-----------|---|---|---|---|---|---|---|---|---|---|---|---|
E -----------------|---------------0---|-----0-------------|
B -------------2---|---0---3---2-----2-|---0-----0-----2---|
G ---------2-----2-|---------4---2-----|-------1---2-----2-|
D -----------2-----|-----2-------------|---2=--0=----2-----|
A -------------0=--|-----------0=--4=--|-----------4=--0=--|
E -----------------|---4=--0=----------|-------------------|


---|---|---|---|---|---|---|---|---|---|---|---|---|---|---|
E -------------0---|-----0-------------|-------------------|
B -0---3---2-----2-|---0-----0-----2---|-------3-------5---|
G -------4---2-----|-------1-----2---2-|-----4---4---6---6-|
D ---2-------------|---2=--0=--2-------|---4-------6-------|
A ---------0=--4=--|-----------4=--0=--|---5=--2=--7=--4=--|
E -4=--0=----------|-------------------|-------------------|


---|---|---|---|---|---|---|---|---|---|---|---|---|---|---|
E -------------9---|-----710-7-9---7---|-----5-------------|
B ---910----10--10-|---7--------10---9-|-------5---------3-|
G ------11-9-------|-------------------|---------6---6-4---|
D -7---------------|---0=--------------|-------7=--7-------|
A -9=----------0=--|-----------7=------|---0---------------|
E ----10=--9=------|-------7=------0=--|---------------4=--|


---|---|---|---|---|---|---|---|---|---|---|---|---|---|---|
E ---0-------------|-----0-------------|-----0---2---4-----|
B -2-----0---2---3-|---2-----0---2---3-|---2---4---5---7-5-|
G -----1---2---4---|-------1---2---4---|-------------------|
D -----------------|-------------------|-------------------|
A -0=--2=--4=------|---0=--2=--4=------|---0=--------------|
E -------------4=--|---------------4=--|-------2=--4=--5=--|


---|---|---|---|---|---|---|---|---|---|---|---|---|---|---|
E -7=----------4=--|---5=--------------|---------------0=--|
B -7=------5=------|---------------7=--|---9=------2=------|
G -8=--------4-----|-------6=--8=------|-------4=----1-----|
D ---9-8-9-6-----6-|-----7-6-7---7---4-|-----6-4-6-2-----2-|
A -------------7---|---4-------9---6---|---------------4---|
E -7---------------|-------------------|---7---------------|


---|---|---|---|---|---|---|---|---|---|---|---|---|---|---|
E -2=--------------|-----7-6-7---7-----|----5--4-5---5---2-|
B -------------4=--|---5-------9-----9-|-----------7---4---|
G -----2=--4=------|---------------9---|---6---------------|
D ---4-2-4---4-----|---------------6=--|---7=----------4=--|
A -0-------6-----6-|-----------7=------|-------4=--6=------|
E -------------7---|---4=--------------|-------------------|


---|---|---|---|---|---|---|---|---|---|---|---|---|---|---|
E ---4-2-4---4-----|-----2---2---2-----|------12---9----11-|
B ---------5---2-5-|-------5---4-----4-|---912--12--10-----|
G -4---------------|---2-----------4---|--------------11---|
D -6=----------2=--|---4=--------------|-----------7=--9=--|
A -----2=--4=------|-------0=--2=--6=--|------11=----------|
E -----------------|-------------------|---0=--------------|


---|---|---|---|---|---|---|---|---|---|---|---|---|---|---|
E 12-------9----11-|--12-------9----11-|--12---9----12--11-|
B --12-9----10-----|----12-9----10-----|----12--10-9---7---|
G -------9----11---|---------9----11---|-------------------|
D ----11=--7=--9=--|------11=--7=--9=--|-------7=--9=------|
A 11=--------------|--11=--------------|--11=--------------|
E -----------------|-------------------|---------------7=--|


---|---|---|---|---|---|---|---|---|---|---|---|---|---|---|
E 12---------------|---0---------------|---0---------------|
B --12-9---------4-|-----0-----2-----4-|-----0-----2-----4-|
G -------9-6-------|-------1-----2-----|-------1-----2-----|
D -----------7-4---|---------2-----4---|---------2-----4---|
A -----7=--0=--2=--|-------4=--0=--2=--|-------4=--0=--2---|
E -0=--------------|---4=--------------|---4=--------------|


---|---|---|---|---|---|---|---|---|---|---|---|---|---|---|
E -0---------0-----|---0=------0---4-0-|---2---5-2-4-0-7---|
B ---0-2---------4-|---0=--------0-----|-----0-----------9-|
G -------2-1-------|---1=--------------|-------------------|
D -------------4---|---------------2=--|---1=------2=------|
A -----0=--2=--2=--|-------------------|-------2=----------|
E -4=--------------|---0=--------------|---------------0=--|


---|---|---|---|---|---|---|---|---|---|---|---|---|---|---|
E ---7-----0---4-0-|---2---5-2-4-0-7---|-----7---------4---|
B -7-----7---0-----|-----0-----------9-|---7-----7---5---5-|
G -----8-----------|-------------------|-------8---4-------|
D -------------2=--|---1=------2=------|-------7=--6=------|
A -----0=----------|-------2=----------|---------------7=--|
E -7=------4=------|---------------0=--|---7=--------------|


---|---|---|---|---|---|---|---|---|---|---|---|---|---|---|
E -------------7---|-------0-----0-4-0-|-----2-5-2-4---2---|
B ---710-----9---9-|---5-4---2-0-------|---2---------5---4-|
G -6----11-8-------|---6=--2=--1=------|---2=------4=------|
D -7=------9=--6=--|---------------2=--|-------4=----------|
A -----9=----------|-------------------|---------------2=--|
E -----------------|-------------------|-------------------|


---|---|---|---|---|---|---|---|---|---|---|---|---|---|---|
E ---0-------------|-------------------|-----2-----------0-|
B -----0-----------|-----0---2---3---5-|---3---3-----3-2---|
G -------1---1-----|-------3---4---6---|-------4-3-4---3=--|
D -----2=--2---4-7-|---6---------------|-------------------|
A -------------6=--|---7=--4=--5=------|---2=--------------|
E -0---------------|---------------6=--|-------------------|


---|---|---|---|---|---|---|---|---|---|---|---|---|---|---|
E ---2---4---5---7-|-----9-------------|-----2---------0---|
B -3---6---7---9---|--10--10----10-----|---3-----3---0---3-|
G -4=--------------|--------1011--11-6-|-------4---1-------|
D -----6=--7=------|-------------------|-------0=--2=------|
A -------------8=--|---9=----------0=--|---2=--------------|
E -----------------|-------------------|---------------4=--|


---|---|---|---|---|---|---|---|---|---|---|---|---|---|---|
E ---0-------------|-------------------|-------------------|
B -2-----2-----3-2-|-----3---0-----2-0-|-----2-------------|
G -----2-----2-----|---4---1-----1-----|---2---2-------2=--|
D ---------4-------|-----------3-------|---------3-4=--4-2-|
A -0=--4=--5=------|-------2=--4=------|-------4=--0-4-----|
E -------------2=--|---4=----------1=--|---2=--------------|


---|---|---|---|---|---|---|---|---|---|---|---|---|---|---|
E ---------0=------|-------------------|-------------------|
B -0=--3=----------|-------2=--3=------|-------0=--2=------|
G -------------1=--|---2=--------------|---1=--------------|
D ---4---0-----2-0-|-----2---------4=--|-----0---------3=--|
A -5---2-----2-----|---4---0-4---0-5-4-|---2-----2-----4-2-|
E ---------4-------|-----------2-------|-------4---1-4-----|


---|---|---|---|---|---|---|---|---|---|---|---|---|---|---|
E ---9----10-7-4---|-----9-5--10-7-4---|-----9-5--10-7-4---|
B -7--10-7-------6-|---7-----7-------6-|---7-----7-------6-|
G -------------6=--|-------7=------6=--|-------7=------6=--|
D ---------9=------|---7=------9=------|---7=------9=------|
A -0=--9=----------|-------------------|-------------------|
E -----------------|-------------------|-------------------|


---|---|---|---|---|---|---|---|---|---|---|---|---|---|---|
E --1410-7--14--13-|--14---------------|-------------------|
B --------10---9---|----1410-7-3-0-----|-----2-----3-0-----|
G 11---------------|--11=----------1---|-------2-------1---|
D -----9=-11=------|-----------------3-|---4-----4-------3-|
A 12=--------------|-------9=--2=--4=--|---0=--5=--2=--4=--|
E -------------9---|-------------------|-------------------|


---|---|---|---|---|---|---|---|---|---|---|---|---|---|---|
E -----------------|-----2-------2---1-|---2=--------------|
B ---2-----3-0-----|-------3-----------|---2=----------2---|
G -----2-------1---|---------4-2---1---|---2=------2-----2-|
D -4-----4-------3-|---4---------------|-----4-2-0---2-----|
A -0=--5=--2=--4=--|---0=--2=--4=--4=--|-----------4=--0=--|
E -----------------|-------------------|---2---------------|


---|---|---|---|---|---|---|---|---|---|---|---|---|---|---|
E -------------0---|-----0-------------|---------------0---|
B -0---3---2-----2-|---0-----0-----2---|---0---3---2-----2-|
G -------4---2-----|-------1---2-----2-|---------4---2-----|
D ---2-------------|---2=--0=----2-----|-----2-------------|
A ---------0=--4=--|-----------4=--0=--|-----------0=--4=--|
E -4=--0=----------|-------------------|---4=--0=----------|


---|---|---|---|---|---|---|---|---|---|---|---|---|---|---|
E ---0-----------3-|---2-------------3-|---2-----------2-5-|
B -0-----0---2-5---|-----2-3-----2-5---|-----2-3-----4-----|
G -----1---2-------|-----------2-------|---------3-4-------|
D -2=--0=----------|---0---4-6---------|---0---4-----------|
A ---------4=--0=--|-----------4---0---|-----------6---2---|
E -----------------|-------------------|-------------------|


---|---|---|---|---|---|---|---|---|---|---|---|---|---|---|
E -4---0-------2-5-|----121112-912---9-|----10-910-710---7-|
B ---4-------4-----|---9----------10---|---------------9---|
G -----1-3-4-------|---9=--------------|--11---------------|
D -2=--------------|-------------------|---0-------6---9---|
A ---------6=--2=--|-----------0-------|-------9-----------|
E -----------------|---0=----------9---|-------------------|


---|---|---|---|---|---|---|---|---|---|---|---|---|---|---|
E ---9-7-9---9---5-|-----7-5-7---7---4-|-------------------|
B --------10---7---|-----------9---5---|---2=----------2=--|
G -9---------------|---7---------------|-----------2=------|
D 11-----------7---|---9-----------6---|-----2-1-2---2-----|
A -----7---9-------|-------5---7-------|---0-------4---0-4-|
E -----------------|-------------------|-------------------|


---|---|---|---|---|---|---|---|---|---|---|---|---|---|---|
E -----------------|-------------------|-------------------|
B -3=----------0=--|---2=--------------|-------------------|
G ---------1=------|---------------2=--|---4=----------1=--|
D -----4=----0-----|-------2=--4=------|-------0=--2=------|
A ---5-4-5-2-----2-|-----4-2-4---4-----|---5---------2-----|
E -2-----------4---|---0-------5---2-5-|-----7-5-7-4---0-4-|


---|---|---|---|---|---|---|---|---|---|---|---|---|---|---|
E ---------2-----4-|---5-------2-----4-|---5-------2-----4-|
B -----2-5---3-----|-----5-2-----3-----|-----5-2-----3-----|
G ---2---------4---|---------2-----4---|---------2-----4---|
D ---------0=--2=--|-------4=--0=--2=--|-------4=--0=--2=--|
A -4=--0=----------|---4=--------------|---4=--------------|
E -----------------|-------------------|-------------------|


---|---|---|---|---|---|---|---|---|---|---|---|---|---|---|
E -5---2-----5---4-|---5---------------|-------------------|
B ---5---3-2-------|-----5-------------|-------------------|
G -------------4---|-------6---------1-|---2-------------1-|
D -----0=--2=------|---7=----7-4-0-----|-----2-----4-0-----|
A -4=--------------|-------0=--5=--2---|---4=--4-0-5=--2---|
E -------------0=--|---------------0=--|-------2=------0=--|


---|---|---|---|---|---|---|---|---|---|---|---|---||
E -----------------|-------------------|-----------||
B -----------------|-------------------|-----------||
G -2-------------1-|---2---------2--1--|---2=======||
D ---2-----4-0-----|-----2-4-0---------|---2=======||
A -4=--4-0-5=--2---|---4=--5=--4---2---|---0=======||
E -----2=------0=--|-----------0=--0=--|-----------||


Weed  7 May 1997  
Добавлено: 06.04.2012
Другие материалы по этой песне:
  • Аккорды и текст

Страница создана 06.04.2012
http://primanota.ru/paradies-p-d/toccata-in-a-chords.htm
Привет, Гость.
Предлагаем пройти революционный курс по гитаре.
Подарок от PrimaNota.Ru, забирай!