PrimaNota.ru - самый крупный в мире бесплатный архив песенных текстов, аккордов, табулатур и нот


Parachute Band - Your Word - таба, видео

Регистрация Запомнить меня
Войти через:  Facebook Google Twitter Vk Yandex Mail.ru

Parachute Band - Your Word - таба, видео

Печатать
Просмотров: 86
-------------------------------------------------------------------------------
                             Your Word- Parachute Band
-------------------------------------------------------------------------------
Tabbed by:AndrewU
Email:kdxandy@hotmail.com

Tuning:Standard

Intro
e|---------------------------------------------------------------------------|
B|14\1616-14\1616-14\1616-141414-14\1616-14\1616-14\1616-171717--------------|
G|14\1616-14\1616-14\1616-161616-14\1616-14\1616-14\1616-161616--------------|
D|---------------------------------------------------------------------------|
A|---------------------------------------------------------------------------|
E|---------------------------------------------------------------------------|

Verse
e|---------------------------------------------------------------------------|
B|---------------------------------------------------------------------------|
G|---------------------9-9--6-6----------------------------------------------|
D|-9-9--9-9--4-4--4-4--9-9--6-6--9-9-----------------------------------------|
A|-9-9--9-9--4-4--4-4--7-7--4-4--9-9-----------------------------------------|
E|-7-7--7-7--2-2--2-2------------7-7-----------------------------------------|

Bridge
e|---------------------------------------------------------------------------|
B|---------------------------------------------------------------------------|
G|-----------------------9---------------------------------------------------|
D|-6----------4----------9---------------------------------------------------|
A|-6-let ring-4-let ring-7---------------------------------------------------|
E|-4----------2--------------------------------------------------------------|
You've placed a fire within my heart……

Chorus
e|---------------------------------------------------------------------------|
B|---------------------------------------------------------------------------|
G|-9---------------------------9--------------------6------------------------|
D|-9------9-------4-------6----9-----9-------4------6------------------------|
A|-7------9-------4-------6----7-----9-------4------4------------------------|
E|--------7-------2-------4----------7-------2-------------------------------|
Forever lord…….

Quiet buildup
e|---------------------------------------------------------------------------|
B|---------------------------------------------------------------------------|
G|-9--------------------9----------------------------------------------------|
D|-9------4------6------9------6---------------------------------------------|
A|-7------4------6------7------6---------------------------------------------|
E|--------2------4-------------4---------------------------------------------|
Follow woah Follow…….

Intro
Verse
Bridge 
Chorus
Intro
Verse
Bridge
Chorus X2
Quiet build up
Chorus X2
Intro



| /  slide up
| \  slide down
| h  hammer-on
| p  pull-off
| ~  vibrato
| +  harmonic
| x  Mute note
===============================================================================
Добавлено: 30.10.2013
Другие материалы по этой песне:
  • Аккорды и текст

Страница создана 02.09.2013
http://primanota.ru/parachute-band/your-word-chords.htm
Привет, Гость.
Предлагаем пройти революционный курс по гитаре.
Подарок от PrimaNota.Ru, забирай!