PrimaNota.ru - самый крупный в мире бесплатный архив песенных текстов, аккордов, табулатур и нот


Parachute Band - Its You - таба, видео

Регистрация Запомнить меня
Войти через:  Facebook Google Twitter Vk Yandex Mail.ru

Parachute Band - Its You - таба, видео

Печатать
Просмотров: 76
Уроки эстрадного вокала в Санкт-Петербурге
 Standard Tuning:

-Verse---

 (delay not much gain and wah)

 Tremelo pick:
 -----------------------|
 -16-17-12-19-16-14-12--|
 -----------------------|
 -----------------------|
 -----------------------|
 -----------------------|

-PRE-CHORUS---

 (delay with more gain)

 Pick each note

 G*  F* E

 -7--2--7------|
 -4--0--5------|
 -4--3--4--4-4-|
 -6--4--6--6-6-|
 --------------|
 ----------0-0-|

-CHORUS---

 (same effects as pre-chorus)

  B  E  G*m E  G*m  F* B

 -7--0--11--0--11--14--7--|
 -0--7--12--7--12--14--0--|
 -8--9--13--9--13--15--8--|
 -9--9--13--9--13--16--9--|
 -9--8--11--8--11--16--9--|
 -7----------------14--7--|

-Bridge-- (repeat as needed)

 (added gain)

 -------------16-14-------------14-16----14-16-------|
 -17-17-17-17-------16-16-16-16-------16-------16/14-|
 ----------------------------------------------------|
 ----------------------------------------------------|
 ----------------------------------------------------|
 ----------------------------------------------------|

 -------------16-14-------------14-16----14-16----------|
 -17-17-17-17-------16-16-16-16-------16-------16/11~~ -|
 -------------------------------------------------------|
 -------------------------------------------------------|
 -------------------------------------------------------|
 -------------------------------------------------------|
Добавлено: 31.10.2013
Другие материалы по этой песне:
  • Аккорды и текст

Страница создана 31.10.2013
http://primanota.ru/parachute-band/its-you-chords.htm
Привет, Гость.
Предлагаем пройти революционный курс по гитаре.
Подарок от PrimaNota.Ru, забирай!