PrimaNota.ru - самый крупный в мире бесплатный архив песенных текстов, аккордов, табулатур и нот


Parabelle - Your Starry Eyes - таба, видео

Регистрация Запомнить меня
Войти через:  Facebook Google Twitter Vk Yandex Mail.ru

Parabelle - Your Starry Eyes - таба, видео

Печатать
Просмотров: 56
---------------------------------------------------------------------------------------
                        Your Starry Eyes(Intro)-Parabelle
---------------------------------------------------------------------------------------
Tabbed by: Revive_II
Email: Revive_II@hotmail.com

Tuning: Drop C

Intro for Rhythm guitar.

Palm muting is fairly light throughout the intro

Guitar 1
D|----------------------------------------------------------------------------------------|
A|----------------------------------------------------------------------------------------|
F|-----------10 10 10-10--------------------------------10-10-10-10-----------------------|
C|-8-8-8-8-8-------------11 11-11-11-13-13-13--8-8-8-8-8-------------11-11-11-11-10-10-10-|
G|----------------------------------------------------------------------------------------|
C|----------------------------------------------------------------------------------------|

P.M-------------------------------------------------------------------------------------

D|-----------------------------------------------------------------------------------------|
A|-----------------------------------------------------------------------------------------|
F|-----------10-10-10-10-------------------------------------------------------------------|
C|-8-8-8-8-8-------------11-11-11-11-13-13-13---------------11-11-11-11-10-10-10-10-6-6-6-6|
G|--------------------------------------------11-11-11-11-11-------------------------------|
C|-----------------------------------------------------------------------------------------|

P.M----------------------------------------------------------------------------------------

Repeat until Chorus (3 times)

************************************

| /   slide up
| \   slide down
| h   hammer-on
| p   pull-off
| ~   vibrato
| +   harmonic
| x   Mute note
| b   Bend
| pb  Pre-bend
| br  Bend release
| pbr Pre-bend release
| brb Bend release bend

************************************
Добавлено: 20.04.2016
Другие материалы по этой песне:
  • Аккорды и текст

Страница создана 20.04.2016
http://primanota.ru/parabelle/your-starry-eyes-chords.htm
Привет, Гость.
Предлагаем пройти революционный курс по гитаре.
Подарок от PrimaNota.Ru, забирай!