PrimaNota.ru - самый крупный в мире бесплатный архив песенных текстов, аккордов, табулатур и нот


Parabelle - Us - таба, видео

Регистрация Запомнить меня
Войти через:  Facebook Google Twitter Vk Yandex Mail.ru

Parabelle - Us - таба, видео

Печатать
Просмотров: 124
|---------------------------------------------------------------------------|
                                     Us (Walk Away) - Parabelle             
|---------------------------------------------------------------------------|
|Transcribed by:            stttevee                                        |
|Guitar Tuning:             C G C F A D (Drop C)                            |
|Transcribed from:          http://www.youtube.com/watch?v=-i9ADCAJ9u4      |
|---------------------------------------------------------------------------|

Intro [4 bars]:

D|----------------------------------------|---------------------------------|
A|----------------------------------------|---------------------------------|
F|--------10---------9h10------10---------|----------------------10---------|
C|-----10----10---10--------10----10---10-|-----10-------10---10----10---10-|
G|---8----------8---------8----------8----|---8------8------8----------8----|
C|-0--------------------------------------|-7------7---8--------------------|
                                             
D|----------------------------------------|---------------------------------|
A|----------------------------------------|---------------------------------|
F|--------10---------9h10------10---------|---10---10---10-10---------------|
C|-----10----10---10--------10----10---10-|---10---10---10-10---------------|
G|---8----------8---------8----------8----|---8----8----8--8----------------|
C|-0--------------------------------------|---7----7----8--8----------------|

Verse1 [8 bars]:

  I wanna say I'll always be your fool              
  'cause everything you are is frankly beautiful    
  you always said you would refuse to bear all the  
  bad news it lets you stay strong and wait for me  

D|------------------|-----------------|
A|------------------|-----------------|
F|------------------|-----------------|
C|-0-000-0-00-0-00--|-7-777-8-88-8-88-| x4        
G|-0-000-0-00-0-00=-|-7-777-8-88-8-88-|
C|-0-000-0-00-0-00--|-7-777-8-88-8-88-|

Pre-chorus1 [4 bars]:

  to paint myself out of your scenery
  so you won't notice me

D|--------8--------|--------8-------|                           D|----------|
A|-8---------8h10--|-8--------------|                           A|-8--------|
F|-----10----------|----10----------|                           F|---10-10--|
C|-0---------------|-7------8-------| x2     
G|-0---------------|-7------8-------|                (4th bar fill play this)
C|-0---------------|-7------8-------|                ( rhythm/fills combined)

Chorus1 [8 bars]:

  did I cause you to change
  we never walk away walk away
  can I bother you to stay
  and never walk away

D|-----------------|----------------------------| 
A|-----------------|----------------------------|         (8th bar play this)
F|-----------------|----------------------------|
C|-0-000-0-00-0-00-|-8-888-10--10-10--10--10-10-| x4           C|-8----10---|
G|-0-000-0-00-0-00-|-8-888-10--10-10--10--10-10-|              G|-8----10---|
C|-0-000-0-00-0-00-|-8-888-10--10-10--10--10-10-|              C|-8----10---|

Repeat Intro [4 bars]

Verse2 [8 bars]:
 
  they're writing tales of how we touch is that the 
  same reflection that he got and I will 
  break us down to a little bit of reason and a 
  whole lot more passive title waves
  
D|-----------------|-----------------|
A|-----------------|-----------------|
F|-----------------|-----------------|
C|-0-000-0-00-0-00-|-7-777-8-88-8-88-| x4
G|-0-000-0-00-0-00-|-7-777-8-88-8-88-|
C|-0-000-0-00-0-00-|-7-777-8-88-8-88-|

Pre-chorus2 [8 bars]:

  and there's a pond that we wade across
  but you're still skipping stones
  but I will wait 'til you walk around 
  you never fought for me

D|--------8--------|--------8-------|                           D|----------|
A|-8---------8h10--|-8--------------|                           A|-8--------|
F|-----10----------|----10----------|                           F|---10-10--|
C|-0---------------|-7------8-------| x4          
G|-0---------------|-7------8-------|                (4th bar fill play this)
C|-0---------------|-7------8-------|                (   last 2 bars no fill)
                                                     (  build into chorus by)
Chorus2 [8 bars]:                                    ( strumming last 2 bars)

  did I cause you to change
  we never walk away walk away
  can I bother you to stay
  and never walk awayyy (into bridge)
   
D|------------------|----------------------------|                (  8th bar)
A|------------------|----------------------------|                (play this)
F|------------------|----------------------------|
C|-0-000-0-00-0-00--|-8-888-10--10-10--10--10-10-| x4            C|-8-10-10-|
G|-0-000-0-00-0-00--|-8-888-10--10-10--10--10-10-|               G|-8-10-10-|
C|-0-000-0-00-0-00--|-8-888-10--10-10--10--10-10-|               C|-8-10-10-|

Bridge [12 bars]:

  we kill them all white knuckle 
  failure we kill them all and what I 
  want is dead and shaded in from all the side lines
                                                                (   12th bar)
D|--------------|--------------|--------------|--------------|  ( strum this)
A|--------------|--------------|--------------|--------------|  (rhythm sim.)
F|--------------|--------------|--------------|--------------|
C|-0-0-0-0-0-00-|-0-0-0-0-0-00-|-8-8-8-8-8-88-|-8-8-8-8-8-88-| x3     C|-10-|
G|-0-0-0-0-0-00-|-0-0-0-0-0-00-|-8-8-8-8-8-88-|-8-8-8-8-8-88-|        G|-10-|
C|-0-0-0-0-0-00-|-0-0-0-0-0-00-|-8-8-8-8-8-88-|-8-8-8-8-8-88-|        C|-10-|

Pre-Chorus/Verse [8 bars]:

D|------------------|-8----------------|
A|------------------|--------8---------|
F|------------------|-------------10---|
C|-0-000-0-00-0-00--|-7-777--8-88-8-88-| x1            
G|-0-000-0-00-0-00=-|-7-777--8-88-8-88-|            
C|-0-000-0-00-0-00--|-7-777--8-88-8-88-|

  I know you and you know me we

D|------------------|------------------|
A|-10---------------|------------------|
F|------------------|-9-9h10-10/12--10-|
C|-0-000-0-00-0-00--|-7-777--8-88-8-88-| x1  
G|-0-000-0-00-0-00=-|-7-777--8-88-8-88-|
C|-0-000-0-00-0-00--|-7-777--8-88-8-88-|

  both know how but don't know why we

D|------------------|-8----------------|
A|------------------|--------8---------|
F|------------------|-------------10---|
C|12-000-0-00-0-00--|-7-777--8-88-8-88-| x1     
G|-0-000-0-00-0-00=-|-7-777--8-88-8-88-|
C|-0-000-0-00-0-00--|-7-777--8-88-8-88-|

  know the words and we both know how to hurt

D|------------------|------------------|
A|-10---------------|------------------|
F|------------------|------------------|
C|-0-000-0-00-0-00--|-7-777--8-88-8-88-| x1     
G|-0-000-0-00-0-00=-|-7-777--8-88-8-88-|
C|-0-000-0-00-0-00--|-7-777--8-88-8-88-|

Chorus3 [8 bars]:

  did I cause you to change
  we never walk away walk away
  can I bother you to stay
  and never walk away

D|------------------|----------------------------|      
A|------------------|----------------------------|      
F|------------------|----------------------------|
C|-0-000-0-00-0-00--|-8-888-10--10-10--10--10-10-| x4   
G|-0-000-0-00-0-00--|-8-888-10--10-10--10--10-10-|     
C|-0-000-0-00-0-00--|-8-888-10--10-10--10--10-10-|  

Outro [8 bars]: 

  or we could just kill them all                                       ( end)
  slight second chances                                                (  on)
  we kill them all                                                     (this)
  how about now for us           

D|------------------|--------------------------------------|          D|---||
A|------------------|--------------------------------------|          A|---||
F|------------------|--------------------------------------|          F|---||
C|-0000000000000000-|-888888-10-10-10-10-10-10-10-10-10-10-| x4       C|-0-||
G|-0000000000000000-|-888888-10-10-10-10-10-10-10-10-10-10-|          G|-0-||
C|-0000000000000000-|-888888-10-10-10-10-10-10-10-10-10-10-|          C|-0-||

************************************

| /   slide up
| \   slide down
| h   hammer-on
| p   pull-off

************************************
Добавлено: 06.08.2013
Другие материалы по этой песне:
  • Аккорды и текст

Страница создана 06.08.2013
http://primanota.ru/parabelle/us-chords.htm
Привет, Гость.
Предлагаем пройти революционный курс по гитаре.
Подарок от PrimaNota.Ru, забирай!