PrimaNota.ru - самый крупный в мире бесплатный архив песенных текстов, аккордов, табулатур и нот


Parabelle - Rise - таба, видео

Регистрация Запомнить меня
Войти через:  Facebook Google Twitter Vk Yandex Mail.ru

Parabelle - Rise - таба, видео

Печатать
Просмотров: 190
Уроки эстрадного вокала в Санкт-Петербурге
As best as I can figure out. Based off of my own playthrough of the song
https://www.youtube.com/watch?v=p3priU66KvE

They use some Delay in here, and personally I couldn't tell you when, where, etc 
you'll have to figure it out yourself if you've got a Delay effect (I don't).

It's not 100% correct, but it's pretty close.
Corrections gladly accepted, let's get this song 100% down! :D

*Ignore the eADGBE next to the tab this is in Drop C

-------------------------------------------------------------------------------
                             RISE - PARABELLE
-------------------------------------------------------------------------------
Tabbed by:
E-mail:

Tuning: Drop C


Verse/Intro 
e|------------------------------|
B|------------------------------|
G|---------11-11-----7---7---9p7|
D|---9---9---9-----0---0---0----|
A|-7---7---------0--------------|
E|------------------------------|

e|------------------------------|
B|------------------------------|
G|---------11-11-----5---5---7p5|
D|---9---9---9-----0---0---0----|
A|-7---7---------0--------------|
E|------------------------------|
                                                    Ending 1         Ending 2 (Distort)                   
e|-------------------------------------------------|---------------|---------------------|
B|-------------------------------------------------|---------------|---------------------|
G|-------------0-0-------------0-0-------------0-0-|------------0-0|---------------------|
D|-------------------------------------------------|---------------|---------------------|
A|----10----10--------10----10--------12----12-----|---12----12----|-10-0-10-12-10-0-10-0|
E|-10----10--------10----10--------12----12--------|12----12-------|-10-0-10-12-10-0-10-0|


Chorus (Strumming is easy)

e|------------------------------------------------|
B|------------------------------------------------|
G|------------------------------------------------
D|-2-5-7-10-0-2-0-10-0-5-2~~----------------------|
A|-2-5-7-10-0-2-0-10-0-5-2~~----------------------|
E|-2-5-7-10-0-2-0-10-0-5-2~~----------------------|

Repeat Verse with Ending 1, then do this riff with Ending 2.
Verse 2 part 2
e|------------------------------------------------|
B|------------------------------------------------|
G|----------0-0-------0-0----------0-0-------0-0--|
D|------------------------------------------------|
A|---2---2--------2----------0---0-------0--------|
E|-2---2--------2---2------0---0-------0---0------|

Repeat Chorus

Bridge

e|---------------------------------------------------------------------------|
B|---------------------------------------------------------------------------|
G|---------------------------------------------------------------------------|
D|-2---2---222~--5---5---555~-7---7---777~-10--------10--------10-10-10\2----|
A|-2---2---222~--5---5---555~-7---7---777~-10--------10--------10-10-10\2----|
E|-22222222222~--55555555555~-77777777777~-10-101010-10-101010-10-10-10\2----|
    *** ***      *** ***       *** ***        * * *     * * *
Bridge pt2 (Strum except the last chord)
e|---------------------------------------------------------------------------|
B|---------------------------------------------------------------------------|
G|---------------------------------------------------------------------------|
D|-2-5-7-10-2~~--------------------------------------------------------------|
A|-2-5-7-10-2~~--------------------------------------------------------------|
E|-2-5-7-10-2~~--------------------------------------------------------------|

Lead thing, somewhere around here
e|-18------------------------------------------------------------------------|
B|---19----------------------------------------------------------------------|
G|-----18~~------------------------------------------------------------------|
D|---------------------------------------------------------------------------|
A|---------------------------------------------------------------------------|
E|---------------------------------------------------------------------------|

Play Verse ending 2
Play Chorus

Outro
e|---------------------------------------------------------------------------|
B|---------------------------------------------------------------------------|
G|---------------------------------------------------------------------------|
D|-2---2h3p2-555-2---2h3p2-10-10-10-2---2h3p2-555-2---2h3p2-10-10-10-0-2~~---|
A|-2---------555-2---------10-10-10-2---------555-2---------10-10-10-0-2~~---|
E|-2-0-------555-2-0-------10-10-10-2-0-------555-2-0-------10-10-10-0-2~~---|
     *             *                  *             *

************************************

| /   slide up
| *   palm mute
| \   slide down
| h   hammer-on
| p   pull-off
| ~   vibrato
| +   harmonic
| x   Mute note
| b   Bend
| pb  Pre-bend
| br  Bend release
| pbr Pre-bend release
| brb Bend release bend

************************************
Добавлено: 31.07.2015
Вам также может быть интересно:
Другие материалы по этой песне:
  • Аккорды и текст

Страница создана 31.07.2015
http://primanota.ru/parabelle/rise-chords.htm
Привет, Гость.
Предлагаем пройти революционный курс по гитаре.
Подарок от PrimaNota.Ru, забирай!