PrimaNota.ru - самый крупный в мире бесплатный архив песенных текстов, аккордов, табулатур и нот


Paprika Korps - Radio - бас-таба, видео

Регистрация Запомнить меня
Войти через:  Facebook Google Twitter Vk Yandex Mail.ru

Paprika Korps - Radio - бас-таба, видео

Печатать
Просмотров: 119
Уроки эстрадного вокала в Санкт-Петербурге
Song: Radio
Artist: Paprika Korps
Album: Przede Wszystkim Muzyki
Official Web Page: http://paprika.reggae.pl/
Tabbed by: Miska Skrzat (basscr@poczta.onet.pl)
Standard tuning.

Verse I
G|--------------------------------------------|
D|*-------0-----------------------------------|
A|*---------2-32------------------------------|
E|-----0-0------------------------------------|

Verse I (variation)
G|--------------------------------------------|
D|*-------0-----------------------------------|
A|*---------22-32-----------------------------|
E|-- --0-0------------------------------------|

Verse II
G|--------------------------------------------|
D|*-------------------------------------------|
A|*---------0-2----------0-20-----------------|
E|----3-3-3--------3-3-3-----32---------------|

There is a silence (2:17 - 2:21) which then 
starts in that way:
G|------------|
D|*-----------|
A|*--0-20-----|
E|-------32---|

Then repeat verses I & II to the end.

Miska Skrzat

     
Добавлено: 25.11.2013
Вам также может быть интересно:
Другие материалы по этой песне:
  • Аккорды и текст

Страница создана 25.11.2013
http://primanota.ru/paprika-korps/radio-chords.htm
Привет, Гость.
Предлагаем пройти революционный курс по гитаре.
Подарок от PrimaNota.Ru, забирай!