PrimaNota.ru - самый крупный в мире бесплатный архив песенных текстов, аккордов, табулатур и нот


Pappo - Vamos A Buscar La Luz - бас-таба, видео

Регистрация Запомнить меня
Войти через:  Facebook Google Twitter Vk Yandex Mail.ru

Pappo - Vamos A Buscar La Luz - бас-таба, видео

Печатать
Просмотров: 71
Новый альбом группы 'Черный Кузнец' по культовому сериалу 'Сверхъестественное'!
Авторы музыки: Alejandro Medina, Pappo
Авторы текста: Alejandro Medina, Pappo
El tema en realidad se llama "Vamos a buscar la luz" pero para
que lo ubique el que lo pidio lo puse con el nombre de "Aeroblus"
que es tambien el nombre de la banda que toco por primera vez
este tema, que estaba integrada por Pappo-Medina-Castello Junior.
Esta transcripcion esta hecha del disco de album ?Aeroblus? (1976)
La afinación del bajo en este tema del disco es un poco mas grave de la
comun(440).
Version Corregida

G|-----------------------------------------------------
D|-----------------------------------------------------
A|-----------------------------------------------------
E|-7--7--7--7--2--2--2--2/-11--11--11--11--5--5--5--5--

G|----------------------------------------------------------------
D|----------------------------------------------------------------
A|----------------------------------------------------------------
E|-7--7--7--7-7-7--7--7--7--7-7-7--7--7--7--7-7-7--7--7--7--7-7-7-
          (4 veces)
G|----------------------------|
D|----------------------------|
A|-----7---5--7---7--5--------|
E|-0--------------------7--5-3|
?Aeroblus,                                               ?vamos a buscar??
G|------------------------------------------------------------------------
D|------------------------------------------------------------------------
A|------------------------------------------------------------------------
E|---5---5--3-5--3-5--3-5---5--3-5--3-5--3-5---5--3-5--3-5--3-5---5--5--5-
           (2 veces)
G|----------------------------|
D|----------------------------|
A|-----7---5--7---7--5--------|
E|-0--------------------7--5-3|
?Aeroblus,                                               ?vamos a buscar??
G|------------------------------------------------------------------------
D|------------------------------------------------------------------------
A|------------------------------------------------------------------------
E|---5---5--3-5--3-5--3-5---5--3-5--3-5--3-5---5--3-5--3-5--3-5---5--5--5-
           (2 veces)
G|----------------------------|
D|----------------------------|
A|-----7---5--7---7--5--------|
E|-0--------------------7--5-3|

G|-----------------------------------------------------
D|-----------------------------------------------------
A|-----------------------------------------------------
E|-7--7--7--7--2--2--2--2/-11--11--11--11--5--5--5--5--

G|----------------------------------------------------------------
D|----------------------------------------------------------------
A|----------------------------------------------------------------
E|-7--7--7--7-7-7--7--7--7--7-7-7--7--7--7--7-7-7--7--7--7--7-7-7-

(empieza el solo del carpo)
          (4 veces)
G|----------------------------|
D|----------------------------|
A|-----7---5--7---7--5--------|
E|-0--------------------7--5-3|

G|-------------------------------------------------------------------------
D|-------------------------------------------------------------------------
A|----------------------------------------------------------------------5-7
E|5---5--3-5--3-5--3-5---5--3-5--3-5--3-5---5--3-5--3-5--3-5---5--3-5-7----
          (2 veces)
G|----------------------------|
D|----------------------------|
A|-----7---5--7---7--5--------|
E|-0--------------------7--5-3|

G|-----------------------------------------------------
D|-----------------------------------------------------
A|-----------------------------------------------------
E|-7--7--7--7--2--2--2--2/-11--11--11--11--5--5--5--5--

G|----------------------------------------------------------------
D|----------------------------------------------------------------
A|----------------------------------------------------------------
E|-7--7--7--7-7-7--7--7--7--7-7-7--7--7--7--7-7-7--7--7--7--7-7-7-
           (4 veces)
G|----------------------------|
D|----------------------------|
A|-----7---5--7---7--5--------|
E|-0--------------------7--5-3|

G|------------------------------------------------------------------------
D|------------------------------------------------------------------------
A|------------------------------------------------------------------------
E|-3-5---5--3-5--3-5--3-5---5--3-5--3-5--3-5---5--3-5--3-5--3-5---5--5--5-
           (2 veces)
G|----------------------------|
D|----------------------------|
A|-----7---5--7---7--5--------|
E|-0--------------------7--5-3|

G|-------------------------------------------------------------------------
D|-------------------------------------------------------------------------
A|----------------------------------------------------------------------5-7
E|5---5--3-5--3-5--3-5---5--3-5--3-5--3-5---5--3-5--3-5--3-5---5--3-5-7----
           (2 veces)
G|----------------------------|
D|----------------------------|
A|-----7---5--7---7--5--------|
E|-0--------------------7--5-3|

G|-----------------------------------------------------
D|-----------------------------------------------------
A|-----------------------------------------------------
E|-7--7--7--7--2--2--2--2/-11--11--11--11--5--5--5--5--

G|----------------------------------------------------------------
D|----------------------------------------------------------------
A|------------------------------------------------------------5-7-
E|-7--7--7--7-7-7--7--7--7--7-7-7--7--7--7--7-7-7--7--7--7--7-----
          (4 veces)
G|----------------------------|
D|----------------------------|
A|-----7---5--7---7--5--------|
E|-0--------------------7--5-3|
?Aeroblus,                                               ?vamos a buscar??
G|------------------------------------------------------------------------
D|------------------------------------------------------------------------
A|------------------------------------------------------------------------
E|---5---5--3-5--3-5--3-5---5--3-5--3-5--3-5---5--3-5--3-5--3-5---5--5--5-
          (2 veces)
G|----------------------------|
D|----------------------------|
A|-----7---5--7---7--5--------|
E|-0--------------------7--5-3|
?Aeroblus,                                               ?vamos a buscar??
G|------------------------------------------------------------------------
D|------------------------------------------------------------------------
A|------------------------------------------------------------------------
E|---5---5--3-5--3-5--3-5---5--3-5--3-5--3-5---5--3-5--3-5--3-5---5--5--5-
          (2 veces)
G|----------------------------|
D|----------------------------|
A|-----7---5--7---7--5--------|
E|-0--------------------7--5-3|

G|-----------------------------------------------------
D|-----------------------------------------------------
A|-----------------------------------------------------
E|-7--7--7--7--2--2--2--2/-11--11--11--11--5--5--5--5--
                                                                  Final
G|---------------------------------------------------------------|--------|
D|---------------------------------------------------------------|--------|
A|---------------------------------------------------------------|--------|
E|-7777777888888899999991010101010101011111111111111121212121212-|--12----|

/: slide up

Nota: esta ultima parte se toca rapido por eso los puse seguidos a los
numeros de trastes que se tocan. es decir se toca el traste 7,8,9,10,11 y
12 pero bien rapido.

Aeroblus (Pappo)

Aeroblus, vamos a buscar la luz
Aeroblus, vamos a buscar la luz

Mientras su musica se siga tocando y escuchando el carpo jamas morira,
vivira eternamente en la memoria de todos...
e-mail: zarathustra4321@
Добавлено: 15.11.2014
Другие материалы по этой песне:
  • Аккорды и текст

Страница создана 15.11.2014
http://primanota.ru/pappo/vamos-a-buscar-la-luz-chords.htm
Привет, Гость.
Предлагаем пройти революционный курс по гитаре.
Подарок от PrimaNota.Ru, забирай!