PrimaNota.ru - самый крупный в мире бесплатный архив песенных текстов, аккордов, табулатур и нот


Pappo - Adonde Esta La Libertad - таба, видео

Регистрация Запомнить меня
Войти через:  Facebook Google Twitter Vk Yandex Mail.ru

Pappo - Adonde Esta La Libertad - таба, видео

Печатать
Просмотров: 213
Новый альбом группы 'Черный Кузнец' по культовому сериалу 'Сверхъестественное'!
Авторы музыки: Pappo
Авторы текста: Pappo
Intro: x4

E5-G5-A5
        Adónde está la libertad,
E5-G5-A5
        no dejo nunca de pensar,
E5-G5-A5
        quizás la tengan en algún lugar,
E5-G5-A5                           (Am)
        que tendremos que alcanzar.

            D5-C5  D5-C5 D5-C5
No creo que nunca,
       D5-C5  D5-C5
Sí que nunca,
            D5-C5  D5-C5 D5-C5
no creo que nunca,
   D5-C5   D5            x4
la hemos pasado tan mal;
 C      D5
no es posible,
 C     D5
es imposible,
     (Am B5 C B5)x2
aguantar.

E5-G5-A5
        El otro día me quisieron matar,
E5-G5-A5
        con ametralladora pa-pa-pa-pa!,
E5-G5-A5
        yo sólo quiero escapar,
E5-G5-     A5
        de toda su locura intelectual.

            D5-C5  D5-C5 D5-C5
No creo que nunca,
       D5-C5  D5-C5
Sí que nunca,
            D5-C5  D5-C5 D5-C5
no creo que nunca,
   D5-C5   D5            x4
la hemos pasado tan mal;
 C      D5
no es posible,
 C     D5
es imposible,
     (Am B5 C B5)x4
aguantar.

Solo: A5

Adonde está...

No creo que nunca...

Solo: A5

   Intro:
                            
*-----------*----------------------*-----------*----------------------*
*-----------*--3b-1-3---1-3-1------*-----------*--3b-3-1--------------*
*-----------*---------2-------2-2--*-----------*---------2------------*
*-----------*----------------------*-----------*-----------0-------7--*
*--2-----7--*----------------------*--2-----7--*-------------3-3/5----*
*--0--3--5--*----------------------*--0--3--5--*----------------------*

                       
*-----------*------------------*-----------*---------*
*-----------*--1----3b^r3^1----*-----------*--3b-----*
*-----------*--2b-2---------2--*-----------*---------*
*-----------*------------------*-----------*---------*
*--2-----7--*------------------*--2-----7--*---------*
*--0--3--5--*------------------*--0--3--5--*---------*

  
*---------------------*
*---------------------*
*---------------------*
*--7---7-5------------*
*--7-------7-6-5------*
*--5-------------8-5--*
Добавлено: 04.07.2012
Другие материалы по этой песне:
  • Аккорды и текст

Страница создана 04.07.2012
http://primanota.ru/pappo/adonde-esta-la-libertad-chords.htm
Привет, Гость.
Предлагаем пройти революционный курс по гитаре.
Подарок от PrimaNota.Ru, забирай!