PrimaNota.ru - самый крупный в мире бесплатный архив песенных текстов, аккордов, табулатур и нот


Papon - Khumaar - таба, видео

Регистрация Запомнить меня
Войти через:  Facebook Google Twitter Vk Yandex Mail.ru

Papon - Khumaar - таба, видео

Печатать
Просмотров: 91
-------------------------------------------------------------------------------
                             Khumaar - Papon
-------------------------------------------------------------------------------
Tabbed by:bro balls
E-mail: yobiraj@gmail.com

Tuning: Standard

e|------0--0---------0--0----------------------------------------------------|
B|---4---4--4-----4---4--4---------------------------------------------------|
G|----4---4--4-----4---4--4--------------------------------------------------|
D|-2-------------2-----------------------------------------------------------|
A|---------------------------------------------------------------------------|
E|---------------------------------------------------------------------------|

e|------4---4--------4--4----------------------------------------------------|
B|---2---2---2----2---2--2---------------------------------------------------|
G|----4---4---4----4---4--4--------------------------------------------------|
D|---------------------------------------------------------------------------|
A|-0-------------0-----------------------------------------------------------|
E|---------------------------------------------------------------------------|


***************************************************************************************************
Добавлено: 07.07.2015
Другие материалы по этой песне:
  • Аккорды и текст

Страница создана 07.07.2015
http://primanota.ru/papon/khumaar-chords.htm
Привет, Гость.
Предлагаем пройти революционный курс по гитаре.
Подарок от PrimaNota.Ru, забирай!