PrimaNota.ru - самый крупный в мире бесплатный архив песенных текстов, аккордов, табулатур и нот


Paper Boats - Summer High - таба, видео

Регистрация Запомнить меня
Войти через:  Facebook Google Twitter Vk Yandex Mail.ru

Paper Boats - Summer High - таба, видео

Печатать
Просмотров: 52
Common Time (4/4), M.M. ~152 bpm

==RHYTHM GUITAR (Standard E)==

 1/5/9/13             2/6/10/14         3/7/11/15          4/8/12/16             x4
e|--------------------|-----------------|------------------|---------------------||
B|-----3-----3---3/5--|---3-------3-----|---------------0--|-------0-------0-----||
G|---------4----------|-------4-----4---|---------0--------|---0-------0-------o-||
D|--------------------|-----------------|-----4-------4----|-----4-------4-----o-||
A|-3------------------|-----------------|-5----------------|---------------------||
E|--------------------|-----------------|------------------|---------------------||
   1 + 2 + 3 + 4 +      1 + 2 + 3 + 4 +   1 + 2 + 3 + 4 +    1 + 2 + 3 + 4 +



==LEAD GUITAR (Standard E)==

 5                   6                 7                       8
e|-15^---------------|-----------------|----------------------|-------------------|
B|-15|---------------|-----------------|-----12---------------|-10----------------|
G|-12|---------------|-----------------|----------12----11----|-------------------|
D|-12|---------------|-----------------|----------------------|-------------------|
A|-------------------|-----------------|----------------------|-------------------|
E|-------------------|-----------------|----------------------|-------------------|
   1   + 2 + 3 + 4 +   1 + 2 + 3 + 4 +   1 + 2  + 3   + 4  +    1  + 2 + 3 + 4 +

 9/13                         10/14                   11/15
e||---------------------------|-----------------------|---------------------------|
B||---------------------------|-----------------------|----12-------12------------|
G||-o-------12------12--------|-------12------12------|-------12-------12----12---|
D||-o-12-12----12---------12--|-12-12----12------12---|-12-------12-------12------|
A||---------------------------|-----------------------|---------------------------|
E||---------------------------|-----------------------|---------------------------|
      1  +  2  +  3 +  4  +     1  +  2  +  3 +  4  +   1  +  2  +  3  +  4  +

 12/16
e|--------------------------||
B|----10-------10-----------||
G|-------12-------12------o-||
D|-12-------12-------12---o-||
A|--------------------------||
E|--------------------------||
   1  +  2  +  3  +  4  +




************************************
SHORTHAND KEY

| /   slide up

| ^   strum in indicated direction
| '

************************************
Добавлено: 11.08.2015
Другие материалы по этой песне:
  • Аккорды и текст

Страница создана 11.08.2015
http://primanota.ru/paper-boats/summer-high-chords.htm
Привет, Гость.
Предлагаем пройти революционный курс по гитаре.
Подарок от PrimaNota.Ru, забирай!