PrimaNota.ru - самый крупный в мире бесплатный архив песенных текстов, аккордов, табулатур и нот


Paper Aeroplanes - Find Yourself - таба, видео

Регистрация Запомнить меня
Войти через:  Facebook Google Twitter Vk Yandex Mail.ru

Paper Aeroplanes - Find Yourself - таба, видео

Печатать
Просмотров: 79
Уроки эстрадного вокала в Санкт-Петербурге
-------------------------------------------------------------------------------
                             Find Yourself (Acoustic ver.) - Paper Aeroplanes/Sarah Howells
-------------------------------------------------------------------------------
Tabbed by: Joachim Min Fa
Youtube: ClickJmf

Hey guys, I made a cover of this song on my youtube channel 2 years ago.
And ever since then I have been receiving requests for tabs or tutorial, SO HERE GOES!
I played it with the capo on 2 but I've posted up exactly what Sarah Howells plays in the acoustic version. 
If you want to check out my video, here's the link: https://www.youtube.com/watch?v=sKbcfqZwINs

Hope this helps! 
Jo



Capo:4

Intro
e|-------0-------|-------0-------|---------------|---------------|
B|---------------|---------------|-------1-------|-------0-1-0---|
G|-2---2-----2---|-2---2-----2---|-0---0-----0---|-0---0-------0-|
D|---2-----2---2-|---3-----3---3-|---2-----2---2-|---0-----------|
A|-0-------------|---------------|-3-------------|---------------|
E|---------------|-1-------------|---------------|-3-------------|
  Am              F               C               G


e|-------0-------|-------0-------|---------------|---------------------------|
B|---------------|---------------|-------1-------|-------0-----0-----0-----0-|
G|-2---2-----2---|-2---2-----2---|-0---0-----0---|-0---0-----0-----0-----0---|
D|---2-----2---2-|---3-----3---3-|---2-----2---2-|---0-----0-----0-----0-----|
A|-0-------------|---------------|-3-------------|---------------------------|
E|---------------|-1-------------|---------------|-3-------------------------|
  Am              F               C               G


Verse 1
e|-----------------|----------------|-----------------|----------------|
B|-----2-----2-----|-----1-----1----|-----1-----1-----|-----0-----1p0--|(pull-off)
G|-----2-----2-----|-----2-----2----|-----0-----0-----|-----0-----0----|
D|---2-----2-----2-|---3-----3-----3|---2-----2-----2-|---0-----0----0-| 
A|-0-----0-----0---|----------------|-3-----3-----3---|----------------|
E|-----------------|-1-----1-----1--|-----------------|-3-----3--------|
  Am                F                C                 G
  Drawn in...         back drop...       fade you can...   a-way...

e|-----------------|----------------|-----------------|-----------------|
B|-----2-----2-----|-----1-----1----|-----1-----1-----|-----0-----0-----|
G|-----2-----2-----|-----2-----2----|-----0-----0-----|-----0-----0-----|
D|---2-----2-----2-|---3-----3-----3|---2-----2-----2-|---0-----0-----0-| 
A|-0-----0-----0---|----------------|-3-----3-----3---|-----------------|
E|-----------------|-1-----1-----1--|-----------------|-3-----3-----3---|
  Am                F                C                 G
  Bright lights...    starless night...  hole in the...      day...


Prechorus
F                                Am
Looking at life through a loaded gun
               F                   Am   
Take your best shot, aim it at the sun
           F                     C
Looking at life through a loaded gun
                G
You know you'll find...


Chorus
F                                           C     G
You'll find yourself, you'll find yourself alone    (x3)
F
You'll find yourself, you'll find yourself...


Verse 2
Am             F
Drawn into the darkness here
          C                    G(pull-off)
With your eyes on the prize at stake
Am                F
Same hearts on an endless path
        C                 G
Letting go of the ones we break


Prechorus
F                                Am
Looking at life through a loaded gun
               F                   Am   
Take your best shot, aim it at the sun
           F                     C
Looking at life through a loaded gun
                G
You know you'll find...


Chorus
F                                           C     G
You'll find yourself, you'll find yourself alone    (x3)
F
You'll find yourself...
Am     G     F
Alone


Bridge:
e|-------0-------|-------0-------|---------------|---------------|
B|---------------|---------------|-------1-------|-------0-1-0---|
G|-2---2-----2---|-2---2-----2---|-0---0-----0---|-0---0-------0-|
D|---2-----2---2-|---3-----3---3-|---2-----2---2-|---0-----------|
A|-0-------------|---------------|-3-------------|---------------|
E|---------------|-1-------------|---------------|-3-------------|
  Am              F               C               G


e|-------0-------|-------0-------|---------------|---------------|
B|---------------|---------------|-------1-------|-------0-------|
G|-2---2-----2---|-2---2-----2---|-0---0-----0---|-0---0-----0---|
D|---2-----2---2-|---3-----3---3-|---2-----2---2-|---0-----0---0-|
A|-0-------------|---------------|-3-------------|---------------|
E|---------------|-1-------------|---------------|-3-------------|
  Am              F               C               G
                                                          Looking at...

           F                     Am
          ...life through a loaded gun
               F                   Am   
Take your best shot, aim it at the sun
           F                     C
Looking at life through a loaded gun
                G
You know you'll find...


Chorus
F                                           C     G
You'll find yourself, you'll find yourself alone    (x3)
F
You'll find yourself...
Am     G     F
Alone
Am     G     F
Alone

e|---------------------------------|---|
B|-----1-----1---------1-----1-----|---|
G|-----2-----2---------2-----2-----|---|
D|---3-----3-----3---3-----3-----3-|---|
A|-3-----3-----3---3-----3-----3---|-0-|
E|---------------------------------|---|
  F                                 Am
  You'll find yourself, you'll...     alone


And that's it!
I really hope this helped guys.
if this is too complicated or you're not too sure about some parts, please go and check out my video.

https://www.youtube.com/watch?v=sKbcfqZwINs


************************************

| p   pull-off

************************************
Добавлено: 05.06.2016
Вам также может быть интересно:
Другие материалы по этой песне:
  • Аккорды и текст

Страница создана 05.06.2016
http://primanota.ru/paper-aeroplanes/find-yourself-chords.htm
Привет, Гость.
Предлагаем пройти революционный курс по гитаре.
Подарок от PrimaNota.Ru, забирай!