PrimaNota.ru - самый крупный в мире бесплатный архив песенных текстов, аккордов, табулатур и нот


Papanegro - Yuwirisloin - бас-таба, видео

Регистрация Запомнить меня
Войти через:  Facebook Google Twitter Vk Yandex Mail.ru

Papanegro - Yuwirisloin - бас-таба, видео

Печатать
Просмотров: 72
Новый альбом группы 'Черный Кузнец' по культовому сериалу 'Сверхъестественное'!
Intro

G|-----------|-----------|-------------------|
D|-----------|-----------|-------------------|
A|-44----4---|-55-00-5-0-|-------1-22-00-2-0-|
E|----44---4-|-----------|-2-4-5-------------|

G|-----------|-----------|-------------------|
D|-----------|-----------|-------------------|
A|-44----4---|-55-00-5-0-|-------1-22-00-2-0-|
E|----44---4-|-----------|-2-4-5-------------|

Verso

G|-----------|-----------|-------------------|
D|-----------|-----------|-------------------|
A|-44----4---|-55-00-5-0-|-------1-22-00-2-0-|
E|----44---4-|-----------|-2-4-5-------------|

G|-----------|-----------|-------------------|
D|-----------|-----------|-------------------|
A|-44----4---|-55-00-5-0-|-------1-22-00-2-0-|
E|----44---4-|-----------|-2-4-5-------------|

G|-----------|-----------|-------------------|
D|-----------|-----------|-------------------|
A|-44----4---|-55-00-5-0-|-------1-22-00-2-0-|
E|----44---4-|-----------|-2-4-5-------------|

G|-----------|-----------|--------------------|
D|-----------|-----------|--------------------|
A|-44----4---|-55-00-5-0-|-------1-22-00-2-00-|
E|----44---4-|-----------|-2-4-5--------------|

Coro

G|----------|----------|------------4/6-4-|
D|----------|----------|------------------|
A|-44-66-77-|-55-44-22-|-------1-22-------|
E|----------|----------|-2-4-5------------|

G|----------|----------|-------------------|
D|----------|----------|-------------------|
A|-44-66-77-|-55-44-22-|-------1-22-00-2-0-|
E|----------|----------|-2-4-5-------------|

Verso

G|--6--6--6-|---7--7--7-|---------------------|
D|----------|-----------|---4--6--7-----------|
A|-4--4--4--|-x5--5--5--|-----------22-00-2-0-|
E|----------|-----------|-x2--4--5------------|

G|--6--6--6-|---7--7--7-|---------------------|
D|----------|-----------|---4--6--7-----------|
A|-4--4--4--|-x5--5--5--|-----------22-00-2-0-|
E|----------|-----------|-x2--4--5------------|

G|-----------|-----------|---------------------|
D|-----------|-----------|---4--6--7-----------|
A|-44----4---|-55-00-5-0-|-----------22-00-2-0-|
E|----44---4-|-----------|-x2--4--5------------|

G|-----------|-----------|--------------------|
D|-----------|-----------|--------------------|
A|-44----4---|-55-00-5-0-|-------1-22-00-2-00-|
E|----44---4-|-----------|-2-4-5--------------|

Coro

G|----------|----------|---------------4/6-4-|
D|----------|----------|---4--6--7-----------|
A|-44-66-77-|-55-44-22-|------------22-------|
E|----------|----------|-x2--4--5------------|

G|----------|----------|-----------------------|
D|----------|----------|---4--6--7-------------|
A|-44-66-77-|-55-44-22-|------------22-00-2-00-|
E|----------|----------|-x2--4--5--------------|

G|----------|----------|---------------4/6-4-|
D|----------|----------|---4--6--7-----------|
A|-44-66-77-|-55-44-22-|------------22-------|
E|----------|----------|-x2--4--5------------|

G|----------|----------|-------------------|
D|----------|----------|-------------------|
A|-44-66-77-|-55-44-22-|-------1-22-00-2-4-|
E|----------|----------|-2-4-5-------------|

Solo *c/slap*

G|--6--6--6--|--7--7--7--|---------|---------2h4-2----|
D|-----------|-----------|---------|------2---------2-|
A|-4-44-44-4-|-5-55-55-5-|-------1-|-0-2h4-xx---x-xx--|
E|-----------|-----------|-2-4-5---|------------------|

G|--6--6--6--|--7--7--7--|---------|---------2h4-2----|
D|-----------|-----------|---------|------2---------2-|
A|-4-44-44-4-|-5-55-55-5-|-------1-|-0-2h4-xx---x-xx--|
E|-----------|-----------|-2-4-5---|------------------|

G|--6--6--6--|--7--7--7--|---------|---------2h4-2----|
D|-----------|-----------|---------|------2---------2-|
A|-4-44-44-4-|-5-55-55-5-|-------1-|-0-2h4-xx---x-xx--|
E|-----------|-----------|-2-4-5---|------------------|

G|--6--6--6--|--7--7--7--|---------|------------|
D|-----------|-----------|---------|------------|
A|-4-44-44-4-|-5-55-55-5-|-------1-|-22-00-2-00-|
E|-----------|-----------|-2-4-5---|------------|

Coro

G|----------|----------|---------------4/6-4-|
D|----------|----------|---4--6--7-----------|
A|-44-66-77-|-55-44-22-|------------22-------|
E|----------|----------|-x2--4--5------------|

G|----------|----------|-----------------------|
D|----------|----------|---4--6--7-------------|
A|-44-66-77-|-55-44-22-|------------22-00-2-00-|
E|----------|----------|-x2--4--5--------------|

G|----------|----------|---------------4/6-4-|
D|----------|----------|---4--6--7-----------|
A|-44-66-77-|-55-44-22-|------------22-------|
E|----------|----------|-x2--4--5------------|

G|----------|----------|---------------4/6-4-|
D|----------|----------|---4--6--7-----------|
A|-44-66-77-|-55-44-22-|------------22-------|
E|----------|----------|-x2--4--5------------|

G|----------|----------|---------------4/6-4-|
D|----------|----------|---4--6--7-----------|
A|-44-66-77-|-55-44-22-|------------22-------|
E|----------|----------|-x2--4--5------------|

G|----------|----------|---------------4/6-4-|
D|----------|----------|---4--6--7-----------|
A|-44-66-77-|-55-44-22-|------------22-------|
E|----------|----------|-x2--4--5------------|

G|----------|----------|----------------------|
D|----------|----------|---4--6--7------------|
A|-44-66-77-|-55-44-22-|------------22-00-2-0-|
E|----------|----------|-x2--4--5-------------|

G|----------|----------|----------------------|
D|----------|----------|---4--6--7------------|
A|-44-66-77-|-55-44-22-|------------22-00-2-0-|
E|----------|----------|-x2--4--5-------------|

G|--6-------|--7-------|----------------------|
D|----------|----------|---4--6--7------------|
A|-4--66-77-|-5--44-22-|------------22-00-2-0-|
E|----------|----------|-x2--4--5-------------|

G|--6-------|--7-------|----------------------|
D|----------|----------|---4--6--7------------|
A|-4--66-77-|-5--44-22-|------------22-00-2-0-|
E|----------|----------|-x2--4--5-------------|

G|----------|----------|----------------------|
D|----------|----------|---4--6--7------------|
A|-44-66-77-|-55-44-22-|------------22-00-2-0-|
E|----------|----------|-x2--4--5-------------|
*Fade Out*

una parte del solo kizas esta mal, y una parte del final
tiene una nota muy aguda k no logre caxar cual era.

Despues de todo, el solo es complicado y a oido mas aun,
pero suena bien a pesar de todas las pifias k puede tener.
Добавлено: 25.10.2014
Вам также может быть интересно:
Другие материалы по этой песне:
  • Аккорды и текст

Страница создана 25.10.2014
http://primanota.ru/papanegro/yuwirisloin-chords.htm
Привет, Гость.
Предлагаем пройти революционный курс по гитаре.
Подарок от PrimaNota.Ru, забирай!