PrimaNota.ru - самый крупный в мире бесплатный архив песенных текстов, аккордов, табулатур и нот


Papanegro - Suspension - бас-таба, видео

Регистрация Запомнить меня
Войти через:  Facebook Google Twitter Vk Yandex Mail.ru

Papanegro - Suspension - бас-таба, видео

Печатать
Просмотров: 87
Уроки эстрадного вокала в Санкт-Петербурге
Artist: PapaNegro
Song  : Suspensión
Album : Superactivo

Tab by thekilterry 
Marcelorocket@hotmail.com

Bass: EADG


Intro:
G|---------------------------|-------------------------|
D|---------------------------|------9h11-9-77h9--------|
A|---------------------------|-9-11--------------------|
E|-7-7--2-7--7--77-777-7-2-7-|-----------------7--2-7--|

                                
G|-----------------------------|
D|------9h11-9-77h9-9--6--7--8-|
A|-9-11------------------------|
E|-----------------7--4--5--6--|


verse 1:
G|-----------------------|
D|---9-789-9-9-9-99-789--|
A|-----------------------|
E|-7------7-7-7-7--------|

G|---------------------------|-----------------------|
D|-------------------4----7--|---9-789-9-9-9-99-789--|
A|---2-45--------------------|-----------------------|
E|-2------5x55-67-2x2--5x5---|-77-----7-7-7-7--------|

G|---------------------------|-----------------------|
D|-------------------4----7--|---9-789-9-9-9-99-789--|
A|---2-45--------------------|-----------------------|
E|-2------5x55-67-2x2--5x5---|-77-----7-7-7-7--------|

G|---------------------------|------------------------|
D|-------------------4----7--|------------------------|
A|---2-45--------------------|-202-0252-22025-5h7-5---|
E|-2------5x55-67-2x2--5x5---|---------------------66-|


keyboards 1:
G|-----------11-11-11--------------|-----------11-11-11--------------|
D|----------------------------99-9-|----------------------------99-9-|
A|-7h9-7-7/9------9---7h9-7--------|-7h9-7-7/9------9---7h9-7--------|
E|------9------------------9-7--7--|------9------------------9-7--7--|

G|-----------11-11-11--------------|-----------11-11-11---------------|
D|----------------------------99-9-|----------------------------------|
A|-7h9-7-7/9------9---7h9-7--------|-7h9-7-7/9------9---7h9-7---------|
E|------9------------------9-7--7--|------9------------------99-777h8-|


pre-chorus:
G|---------------------|
D|---------------------|
A|-44----22------------|
E|----22----00--2/15/2-|


chorus 1:
G|------------------------------------|
D|------------------------------------|
A|-44-444----------22---25677-567/223-|
E|-------0122-00245---24--------------|

G|-------------------------------6--7-----|
D|----------------------------------------|
A|-4/2-444-----------22---25677-4--5--6/2-|
E|---------0122-00245---24----------------|

G|----------------------------------------|
D|------2---------------------------------|
A|-44-24-4----------022025256-77-55-44-22-|
E|--------02-242525-----------------------|

G|--------------------|
D|------2-------------|
A|-44-24-4--------x-2-|
E|--------02-24252----|


verse 2:
G|---------------------------|-----------------------|
D|-------------------4----7--|---9-789-9-9-9-99-789--|
A|---2-45--------------------|-----------------------|
E|-2------5x55-67-2x2--5x5---|-77-----7-7-7-7--------|

G|---------------------------|-----------------------|
D|-------------------4----7--|---9-789-9-9-9-99-789--|
A|---2-45--------------------|-----------------------|
E|-2------5x55-67-2x2--5x5---|-77-----7-7-7-7--------|

G|-------------------------|---------------------------|
D|-------------------4-----|---------------------------|
A|---2-45------------------|--2-202-0252-22025-5h7-5---|
E|-2------5x55-67-2x2--5x5-|-2----------------------66-|


keyboards 2:
G|-----------11-11-11----------------|-----------11-11-11--------------|
D|-----------------------------------|----------------------------99-9-|
A|-7h9-7-7/9------9---7h9-7----------|-7h9-7-7/9------9---7h9-7--------|
E|------9------------------99-7-5-7--|------9------------------9-7--7--|

G|-----------11-11-11--------------|-----------11-11-11---------------|
D|----------------------------99-9-|----------------------------------|
A|-7h9-7-7/9------9---7h9-7--------|-7h9-7-7/9------9---7h9-7---------|
E|------9------------------9-7--7--|------9------------------99-777h8-|


pre-chorus:
G|---------------------|
D|---------------------|
A|-44----22------------|
E|----22----00--2/15/2-|

Chorus 2:
G|-------------------------------6--7-----|
D|----------------------------------------|
A|-44--444-----------22---25677-4--5--6/2-|
E|---------0122-00245---24----------------|

G|--------------------------------7-7h9 7/1-|
D|-----------------------------7h9----------|
A|-44-444-----------22---25677--------------|
E|-------0122-00245---24--------------------|

G|----------------------------------------|
D|------2---------------------------------|
A|-44-24-4----------022025256-77-55-44-22-|
E|--------02-242525-----------------------|

G|--------------------|
D|------2-------------|
A|-44-24-4--------x-2-|
E|--------02-24252----|

post chorus 2 - verse 3:
G|---------------|-----------------|
D|---------------|--------2-1/2----|
A|--2--2--2------|--4-22-4-----2-4-|    
E|-2--2--2--15/4-|-4---------------|

G|--------------|--------------|
D|-----2-1/2----|-----2-1/2----|
A|-22-4-----2-4-|-22-4-----2-4-|
E|--------------|--------------|

G|-------------|--------------|--------------|
D|-----2-1-----|-----2-1/2----|--------------|
A|-22-4------4-|-22-4-----2-4-|-22-4-2-4-2/7-|
E|---------5---|--------------|--------------|


keyboards 3:
G|-----------11-11-11---------------|-----------11-11-11---------------|
D|----------------------------------|----------------------------------|
A|-7h9-7-7/9------9---7h9-7---------|-7h9-7-7/9------9---7h9-7---------|
E|------9------------------99-7-5-7-| -----9------------------99-7-5-7-|

G|-----------11-11-11---------------|-----------11-11-11---------------|
D|----------------------------------|----------------------------------|
A|-7h9-7-7/9------9---7h9-7---------|-7h9-7-7/9------9---7h9-7---------|
E|------9------------------99-7-5-7-| -----9------------------99-7-5-7-|

G|-----------11-11-11---------------|-----------11-11-11---------------|
D|----------------------------------|----------------------------------|
A|-7h9-7-7/9------9---7h9-7---------|-7h9-7-7/9------9---7h9-7---------|
E|------9------------------99-7-5-7-| -----9------------------99-7-5-7-|

G|-----------11-11-11---------------|-----------11-11-11---------------|
D|----------------------------------|----------------------------------|
A|-7h9-7-7/9------9---7h9-7---------|-7h9-7-7/9------9---7h9-7---------|
E|------9------------------99-7-5-7-| -----9------------------99-7-5-7-|


final:
G|---------------------------|------------|
D|---------9--6--7--8--9-----|------------|
A|---------------------------|-22-222-2-2-|
E|-7-7--2-7--4--5--6--7--7/2-|---------2--|
Добавлено: 21.10.2013
Другие материалы по этой песне:
  • Аккорды и текст

Страница создана 21.10.2013
http://primanota.ru/papanegro/suspension-chords.htm
Привет, Гость.
Предлагаем пройти революционный курс по гитаре.
Подарок от PrimaNota.Ru, забирай!