PrimaNota.ru - самый крупный в мире бесплатный архив песенных текстов, аккордов, табулатур и нот


Papanegro - Emotion - бас-таба, видео

Регистрация Запомнить меня
Войти через:  Facebook Google Twitter Vk Yandex Mail.ru

Papanegro - Emotion - бас-таба, видео

Печатать
Просмотров: 70
Новый альбом группы 'Черный Кузнец' по культовому сериалу 'Сверхъестественное'!
Intro:

G:-------4---4-------4---:------------------------:
D:-----------------------:------5-----5-----5-----:
A:-x--2----x--0-2--x---2-:------------------------:
E:-----------------------:--3------3-----3-----3--:

G:------------5/6/5/6-----:
D:--------5/7---------7---:
A:----5/7---------------7-:
E:-5----------------------:

G:---------------------------------:------------------------:
D:--------------------10/11-9------:------------------------:
A:-99----9--------9-x----------9---:----55--5-------77--7---:
E:----99---9-8-7-----------------9-:-3-3---3-3---5-5---5-5--:

Verso:

G:------------------------------:----------------------:
D:------------------------------:----------------------:
A:-3--55------3--3--355-----3-5-:----------------------:
E:--------3/5-----------3/5-----:-3-33-x03---3-55-x35--:

G:------------------------------:--------------------------:
D:------------------------------:--------------------------:
A:-3--55------3--3--355-----3-5-:-------------------3---3--:
E:--------3/5-----------3/5-----:-3-33-x03---3-55-5---5----:

Coro:

G:--------------------4---4-------44-----:
D:----4---4---4--------------------------:
A:---------------x-2----x----0-2----2----:
E:-2----2---2----------------------------:

G:---------------------------5/6------:
D:----5---5---5------------7-----7----:
A:-----------------------7---------7--:
E:-3----3---3---3----5----------------:

G:---------------------------------:------------------------:
D:--------------------10/11-9------:------------------------:
A:-99----9--------9-x----------9---:----55--5-------77--7---:
E:----99---9-8-7-----------------9-:-3-3---3-3---5-5---5-5--:

Verso:

G:------------------------------:----------------------:
D:------------------------------:----------------------:
A:-3--55------3--3--355-----3-5-:----------------------:
E:--------3/5-----------3/5-----:-3-33-x03---3-55-x35--:

G:------------------------------:--------------------------:
D:------------------------------:--------------------------:
A:-3--55------3--3--355-----3-5-:-------------------3---3--:
E:--------3/5-----------3/5-----:-3-33-x03---3-55-5---5----:

Coro:

G:--------------------4---4-------44-----:
D:----4---4---4--------------------------:
A:---------------x-2----x----0-2----2----:
E:-2----2---2----------------------------:

G:---------------------------5/6------:
D:----5---5---5------------7-----7----:
A:-----------------------7---------7--:
E:-3----3---3---3----5----------------:

G:---------------------------------:------------------------:
D:--------------------10/11-9------:------------------------:
A:-99----9--------9-x----------9---:----55--5-------77--7---:
E:----99---9-8-7-----------------9-:-3-3---3-3---5-5---5-5--:

Puente:

G:-----------------------:
D:----7---------5--------:
A:-------------------577-:
E:-5-----x---3----3------: x3

G:------------------------:
D:----9-----6-----7-------:
A:------------------------:
E:-7-----4-----5-----6/7--:

G:--------------------------------------------:
D:--------------------------------------------: Juega con esto
A:--------------------------------------------: para que no
E:-7---4-5--2---77---4-5--2---7---4-5--2---7--: salga monce.

Verso:

G:------------------------------:----------------------:
D:------------------------------:----------------------:
A:-3--55------3--3--355-----3-5-:----------------------:
E:--------3/5-----------3/5-----:-3-33-x03---3-55-x35--:

G:------------------------------:--------------------------:
D:------------------------------:--------------------------:
A:-3--55------3--3--355-----3-5-:-------------------3---3--:
E:--------3/5-----------3/5-----:-3-33-x03---3-55-5---5----:

Coro:

G:--------------------4---4-------44-----:
D:----4---4---4--------------------------:
A:---------------x-2----x----0-2----2----:
E:-2----2---2----------------------------:

G:---------------------------5/6------:
D:----5---5---5------------7-----7----:
A:-----------------------7---------7--:
E:-3----3---3---3----5----------------:

G:---------------------------------:------------------------:
D:--------------------10/11-9------:------------------------:
A:-99----9--------9-x----------9---:----55--5-------77--7---:
E:----99---9-8-7-----------------9-:-3-3---3-3---5-5---5-5--:

G:--------------------4---4-------44-----:
D:----4---4---4--------------------------:
A:---------------x-2----x----0-2----2----:
E:-2----2---2----------------------------:

G:---------------------------5/6------:
D:----5---5---5------------7-----7----:
A:-----------------------7---------7--:
E:-3----3---3---3----5----------------:

G:---------------------------------:------------------------:
D:--------------------10/11-9------:------------------------:
A:-99----9--------9-x----------9---:----55--5-------77--7---:
E:----99---9-8-7-----------------9-:-3-3---3-3---5-5---5-5--:

Puente:

G:--------------:
D:-------6---7--:
A:--------------:
E:-7/--4---5----: x2

G:----------------:
D:-----9---6---7--:
A:----------------:
E:-7-----4---5----: Hasta el fade out.

Obviamente las lineas no son todas iguales. Si te fijas,
el bajista les mete bastantes golpes (x) a las cuerdas para
darle mas ritmo.

Soy peruano, pero, hombre, que buen grupo que es este. Por acá
es raro que a alguien le guste algo chileno, aun así, QUE BUEN
FUNK QUE TIENEN POR AHÍ!!!

Mueve harto, arriba papanegro!!!

Hablao.
Добавлено: 18.10.2014
Другие материалы по этой песне:
  • Аккорды и текст

Страница создана 18.10.2014
http://primanota.ru/papanegro/emotion-chords.htm
Привет, Гость.
Предлагаем пройти революционный курс по гитаре.
Подарок от PrimaNota.Ru, забирай!